Guitar Tabs, Chords and Lyrics


A Silent Murder   Story Of The Year



Story of the year
A silent murder

* = Harmonics
h = Hammer on
p = Pull off
t = String tap
/ = Slide up
\ = Slide down

(Intro)
-------12*--------------------------|
----12*----12*----7*------7*--------|
--------------5*----7*--5*---7*-----|4 times
------------------------------------|
------------------------------------|
--0---------------------------------|

(Verse)
---2h3p2--3-5\3-3---2h3p2--3-5\3-3-2-2h3p2---2-2h3p2----------|
--------3-5-7\5-3--------3-5-7\5-3---------3---------3---0----|
----------------0----------------0---------------------2------|2 times
----------------2----------------2----------------------------|
----------------3----------------3----------------------------|
-0--------------x-0--------------x-----------------------0----|

(Chorus)
-0t0t---0/0------2----3-3-3-t-2-----|
--t-t-------7--3---3--------t-------|
--t-t-----------------0--0-0t-------|
--t-t----------0--------------0-----|
-3t3t-3-3/7-------------------------|
------------------------------------|

(verse 2)
... Same as the first one

(chorus)
... same

(outro)
---2h3p2---3-5\3--3----2h3p2---3-5\3--3---------|
---------3-5-7\5--3----------3-5-7\5--3----0----|
------------------0-------------------0---2-----|2 times
------------------2-------------------2--0------|
------------------3-------------------3-3-------|
-0----------------x--0----------------x---------|

...Than finished with a Em chord

End

Hope you've enjoy !!


Important: The song above is NOT stored on the Chordie server. The original song is hosted at www.guitaretab.com. Chordie works as a search engine and provides on-the-fly formatting. Chordie does not index songs against artists/composers will. To remove this song please click here.

This song is displayed as text-only. Transposing and tuning is only available for chordpro-songs.

Login - add to songbook

Rating click stars to rate

Layout
Accuracy

SHARE PAGE  




You need to log in to post comments