"yes"; ?> Little Black Backpack by Stroke 9 - guitar chords, guitar tabs and lyrics - chordie

Little Black Backpack

Stroke 9

 Em7DCadd9Em7
e|------------3----2-----3--3------3------------------------------------
B|------------3----3-----3--3------3-----------------------------------
G|------------0----2-----0--0------0--------------------------------
D|--2-4-5----2----0-----2--2------2---------------------------
A|------------2-----------3--3------2--------------------------
E|-------------0---------------------0------------------------
--------------------------------------------------------------------------------------------------------------------


Verse

 Em7DCadd9Em7DCadd9
 Well I know it, it's a shame, a shame I can't show it
 Em7DCadd9Em7DCadd9
 And I see it, I can see it now, but I'm so far below it

---------------------------------------------------------------------------------------------------------------------


Chorus

(Silent) G Am C D G
Don't wanna, don't wanna talk about it, I say why not
 GAmCDG
 Don't wanna think about it, I say theres got
 GAmCDG
 To be some good reason for your little black backpack
 AmCD
 Upsmack turn around he's on his back and

 GAm
 Dont wanna tango with you, I'd rather tangle with him
 CD
 I think I'm gonna bash his head in
 GAm
 This shouldn't concern you except that
 CDCadd9
 Just don't expect to get your bloody little backpack back

--------------------------------------------------------------------------------------------------------------------


(Repeat Intro)

---------------------------------------------------------------------------------------------------------------------


 Em7DCadd9
 And I can feel you, yes I can
 Em7DCadd9
 What about that dont you understand
 Em7DCadd9
 And I sense you its somethin sensual
 Em7DCadd9
 But its less than I planned

----------------------------------------------------------------------------------------------------------------------


Repeat Chorus

-----------------------------------------------------------------------------------------------------------------------


 Cadd9Em7DCadd9
 Your tryin to find the reason for the way you feel tonight
 Cadd9Em7DCadd9
 Your mind is lined with layers of lead, have you heard one thing that I've said

-----------------------------------------------------------------------------------------------------------------------


Repeat Chorus (x2)

Tabbed by Andrew Biles (im_starting_2_like_th@barmaid.co.uk)

Am C Cadd9 D Em7 G
variations - click chord images
Transpose chords:
Tuning:
Cool service:
View: Size:
A  A  A
Rating:
Layout:
  • Currently 2.9/5 Stars.
  • 1
  • 2
  • 3
  • 4
  • 5
 
Accuracy:
  • Currently 2.9/5 Stars.
  • 1
  • 2
  • 3
  • 4
  • 5
 
click stars to rate
Chordie recommends:
Learn how to play guitar at JamPlay.com
Songbook:
Login to add this song to your songbook
Support the artist
Preview/buy this song
MSN Music
Why this non-profit ad?

 
login to add comments/video/corrections