Guitar Tabs, Chords and Lyrics


Vacuum Bag   Stroke 9



Submitted by: SOAD123abc

Song: Vacuum bag
Tuning: Normal

Intro:
E|-------------------------------------------
B|-------------------------------------------
G|-----8-----8---8----\----5-----5---5-------
D|---8-----8-------x3-\--5-----5-------x2----
A|-6-----6-----6------\3-----3-----3---------
E|-------------------------------------------

E|-------------------------------|
B|-------------------------------|
G|-------------------------------|
D|-----0-----0---0-----8-8-7-5---|
A|---8-----8---------6---------7-|


Important: The song above is NOT stored on the Chordie server. The original song is hosted at www.guitaretab.com. Chordie works as a search engine and provides on-the-fly formatting. Chordie does not index songs against artists'/composers' will. To remove this song please click here.

This song is displayed as text-only. Transposing and tuning is only available for chordpro-songs.

Login - add to songbook

Rating click stars to rate

Layout
Accuracy

SHARE PAGE  




You need to log in to post comments