Guitar Tabs, Chords and Lyrics


You Talk Way Too Much   Strokes



The Strokes - You Talk Way Too Much
Album - Room On Fire

Tuning - Standard (EADGBe)

I love this song, its really easy to play so enjoy!

Intro:
e|------------------------------------------------|
B|------------------------------------------------|
G|------------------------9--9--9-/12-12-12-12-x--|x2
D|-9--9--9-/12-12-12-12-x-11-11-11/14-14-14-14-x--|
A|-11-11-11/14-14-14-14-x-0--0--0--0--0--0--0--x--|
E|-0--0--0--0--0--0--0--x-------------------------|



 Verse:             
e|--------------------------------------------------|
B|-4-4-4-2-2-2-2-2-4-4-4-2-2-2-2-2-2-2-2-0-0-0-0-0--|
G|-2-2-2-2-2-2-2-2-2-2-2-2-2-2-2-2-1-1-1-1-1-1-1-1--|
D|---------------------------------2-2-2-2-2-2-2-2--|
A|--------------------------------------------------|
E|--------------------------------------------------|
          

e|------------------|
B|-2-2-2-0-0-0-0-0--|
G|-1-1-1-1-1-1-1-1--|
D|-2-2-2-2-2-2-2-2--|x4 (whole verse)
A|------------------|
E|------------------|




 Pre-Chorus:
e|------------------|
B|-0-0-0-0-0-0-0-0--|
G|-1-1-1-1-1-1-1-1--|
D|-2-2-2-2-2-2-2-2--|x4
A|------------------|
E|------------------|




 Chorus:
           You talk way too much....
e|-4-4-4-4-4-4-4-4-5-5-5-5-5-5-5-5-4-4-4-4-4-4-4-4-|
B|-5-5-5-5-5-5-5-5-5-5-5-5-5-5-5-5-5-5-5-5-5-5-5-5-|
G|-------------------------------------------------|
D|-------------------------------------------------|
A|-------------------------------------------------|
E|-------------------------------------------------|


e|-5-5-5-5-5-5-5-5/9--9--9--9--9--9--9--9--|
B|-5-5-5-5-5-5-5-5/10-10-10-10-10-10-10-10-|
G|-----------------------------------------|
D|-----------------------------------------|
A|-----------------------------------------|
E|-----------------------------------------|



                                            *Point 1*
                                                v
e|-11-11-11-11-11-11-11-11-9--9--9--9--9--9--9--9---|
B|-10-10-10-10-10-10-10-10-10-10-10-10-10-10-10-10--|
G|--------------------------------------------------|
D|--------------------------------------------------|
A|--------------------------------------------------|
E|--------------------------------------------------|


e|-11-11-11-11-11-11-11-11--|
B|-10-10-10-10-10-10-10-10--|
G|--------------------------|
D|--------------------------|
A|--------------------------|
E|--------------------------|



 Solo:

e|-12-11---9---14-12---11---12-11---9--14--12-11-------|
B|-------------------------------------------------14--|
G|-----------------------------------------------------|
D|-----------------------------------------------------|
A|-----------------------------------------------------|
E|-----------------------------------------------------|


e|-16-16-12-14---14---12-16-16-12-14---16-16-12-14---14--|
B|-------------------------------------------------------|
G|-------------------------------------------------------|
D|-------------------------------------------------------|
A|-------------------------------------------------------|
E|-------------------------------------------------------|


e|-12-16-16-12-14--|
B|-----------------|
G|-----------------|x2 (whole solo)
D|-----------------|
A|-----------------|
E|-----------------|


Back to verse:
Play until *Point 1* then continue below.


e|-11-11-11-11-11-11-11-11-11-11-11-11-11-11-11-11--|
B|-10-10-10-10-10-10-10-10-10-10-10-10-10-10-10-10--|
G|--------------------------------------------------|
D|--------------------------------------------------|
A|--------------------------------------------------|
E|--------------------------------------------------|


e|-4-4-4-4-4-4-4-4-7-7-7-7-7-7-7-7-4-4-4-4-4-4-4-4-|
B|-5-5-5-5-5-5-5-5-7-7-7-7-7-7-7-7-5-5-5-5-5-5-5-5-|
G|-------------------------------------------------|
D|-------------------------------------------------|
A|-------------------------------------------------|
E|-------------------------------------------------|


e|-5-5-5-5-5-5-5-5/9--9--9--9--9--9--9--9--|
B|-5-5-5-5-5-5-5-5/10-10-10-10-10-10-10-10-|
G|-----------------------------------------|
D|-----------------------------------------|
A|-----------------------------------------|
E|-----------------------------------------|


e|-11-11-11-11-11-11-11-9--9--9--9--9--9--9--9--9--|
B|-10-10-10-10-10-10-10-10-10-10-10-10-10-10-10-10-|
G|-------------------------------------------------|
D|-------------------------------------------------|
A|-------------------------------------------------|
E|-------------------------------------------------|


e|-11-11-11-11-11-11-11-11--|
B|-10-10-10-10-10-10-10-10--|
G|--------------------------|
D|--------------------------|
A|--------------------------|
E|--------------------------|



Outro: Go back to Intro and play twice, then end on open E chord.



Legend:
/ - slide up fretboard
\ - slide down fretboard
h - hammer on
p - pull off
x = dead note


Important: The song above is NOT stored on the Chordie server. The original song is hosted at www.guitaretab.com. Chordie works as a search engine and provides on-the-fly formatting. Chordie does not index songs against artists/composers will. To remove this song please click here.

This song is displayed as text-only. Transposing and tuning is only available for chordpro-songs.

Login - add to songbook

Rating click stars to rate

Layout
Accuracy

SHARE PAGE  




You need to log in to post comments