Chordie logo


Whatever Happened   Strokes



Chord Diagrams
    B    E    C#m    E/G#
e---x----x-----x------x----|
B---4----9-----5------9----|
G---4----9-----6------9----|
D---4----9-----6------9----|
A---2----7-----4------11---|
E---x----x-----x------x----|

Note:"....." means Palm Mute.


INTRO
e------------|
B------------|
G------------|
D------------|
A-22222222222
E------------
.............

SOLO
e--------------------------------|
B--------------------------------|
G-13----------------13----11-----|  x2
D---13-16--13---------13----13---|
A------------16-14------14----14-|
E--------------------------------|

e--------------------------------|
B-12-0-9-0-11--14-0-11-12--11-9--|
G--------------------------------|  x2
D--------------------------------|
A--------------------------------|
E--------------------------------|

2nd guitar play this during solo.
e---------------------------|
B---------------------------|
G----------------9---8------|
D-9--8-----------11--9------|
A-11-9----------------------|
E---------------------------|

VERSE
e--------------------------------|
B--------------------------------|
G----------------9--------8------|
D-9--8-----------11-------9------|
A-11-9---------------------------|
E--------------------------------|

e--------------------------------------------------|
B--------------------------------------------------|
G-----------------------------9--------8-----------|
D-9--------8------------------11-------9-----------|
A-11-------9---------------------------------------|
E--------------------------------------------------|

e------------------------------------------------|
B------------------------------------------------|
G-------------------9--------8-------------------|
D-9--------8--------11-------9-------------------|
A-11-------9-------------------------------------|
E------------------------------------------------|

e------------------------------------------------|
B------------------------------------------------|
G--------------------------------9--------8------|
D-9---------8--------------------11-------9------|
A-11--------9------------------------------------|
E------------------------------------------------|

E------------------------------------------------|
B------------------------------------------------|
G------------------------9--------8--------------|
D-9---------8------------11-------9--------------|
A-11--------9------------------------------------|
E------------------------------------------------|

e------------------------------------------------|
B------------------------------------------------|
G------------------------------------------------|
D-9-------8--------------------------------------|
A-11------9--------------------------------------|
E------------------------------------------------|

e----------------------------|
B----------------------------|
G----------------------------|
D-13-13-13--13--13--13--13---|  x4
A-14-14-14--12--12--12--12---|
E----------------------------|

e----------------|
B----------------|
G-18------13-----|
D-18------13-----|
A-16------11-----|
E----------------|


e----------------------------------|
B----------------------------------|
G----------------9----------8------|
D-9--8-----------11---------9------|
A-11-9-----------------------------|
E----------------------------------|

e-------------------------------------------|
B-------------------------------------------|
G------------------------9-----------8------|
D-9------8---------------11----------9------|
A-11-----9----------------------------------|
E-------------------------------------------|

e------------------------------------|
B------------------------------------|
G--------------------9--------8------|
D-9--8---------------11-------9------|
A-11-9-------------------------------|
E------------------------------------|

e--------------------------------------|
B--------------------------------------|
G--------------------------------------|
D-9-------8----------------------------|
A-11------9----------------------------|
E--------------------------------------|


PM............
e------------|
B------------|
G------------|
D------------|
A-22222222222
E------------



Important: The song above is NOT stored on the Chordie server. The original song is hosted at www.guitaretab.com. Chordie works as a search engine and provides on-the-fly formatting. Chordie does not index songs against artists/composers will. To remove this song please click here.

This song is displayed as text-only. Transposing and tuning is only available for chordpro-songs.

Login - add to songbook

Rating click stars to rate

Layout
Accuracy

SHARE PAGE  




You need to log in to post comments