Chordie logo

Ultimate Devotion  Strung Out

--------------------------------------- 



      ---------------------------------------------------------------------- 






      [E]One hundred and one point one farenheit
      To [C]some it's a fever to her it's just right
      [G]I can't hold her and it's bringing me [E]down
Her blood runs hot but her heart beats cold
      She's a [C]devil with an angels face I've been told
G (gtr enter) G F# E
I think I'll push my luck next time around
      [D]I'd walk through fire for you I'd [E]burn in hell and make it all true
      But I [C]don't like anyone [D]else in this [G]world [F#]but [E]you
      There's a [C]thousand reasons why I'd try to [D]prove to you I'm not the other
      guy [C]I don't give a [D]damn what other people [B]think
Solo: over E C /G E /E C /G E /
      e----------------------------------------------------------3-2-0-2-12
      B----------------------------------------------------------3-2-0-2-12
      G---11--11--11--11--11--11--11--11--7--7--7--7--7--7--7--7-----------
      D-14--14--14--14--14--14--14--14--10-10-10-10-10-10-10-10------------
      A--------------------------------------------------------------------
      E--------------------------------------------------------------------
      e-12-12-12-14-13-12-12-12-12-14-13-12-12-12-12-14-13----------------
      B----------------12----------------12-------------------------------
      G-------------------------------------------------------------------
      D----------------------------------------------------14-16-17-------
      A-------------------------------------------------------------5-4-2-
      E-------------------------------------------------------------3-2-0- 

Verse:
      [F#]A f[E]lair for the strange and a temper like a whip
      A [C]soft hand clutches a riding crop grip
      [D]Smell of latex rubber drives [G]me[F#] in[E]sane
Well beat up once and send him on his way
      There's no [C]room in your life for anyone to stay
      En[D]grave your moniker in [G]welts [F#]of [E]pain
      There's [D]nothing I wouldn't do to proove to [E]make these words I promise
      true.  I'd [C]rather live my life a[D]lone than [G]wit[F#]hout [E]you
      [C]You know I'd rather die than [D]fuck this up won't get another try
      [C]Got one chance there's [D]nothing I wouldn't [B]do
C* E*
You be my master I'll be your servant
      [C]On my knees I [D]beg to be a[E]bused
C* E*
You can take the skin right off my back with a riding crop or a leather
      strap.  I'd [C]take it all [D]just to [G]be [F#]with [E]you[F#] [E] [F#]
      [D]I'd walk through fire for you I'd [E]burn in hell to make it all true
      I [C]don't love anyone [D]else in this [G]world [F#]but [E]you
      A [C]thousand reasons why I'd try to [D]prove to you I'm not the other guy
      [C]You're my goddess [D]and I'm watching [B]you....
Ending:
      e---------------------
      B---------------------
      G-2-0-----------------
      D-----2-0-------------
      A---------2-0---2-2-2-
      E-------------3-0-0-0- 				


Important: The song above is NOT stored on the Chordie server. The original song is hosted at www.guitaretab.com. Chordie works as a search engine and provides on-the-fly formatting. Chordie does not index songs against artists/composers will. To remove this song please click here.

B C D E F# G
variations - click chord images

Login - add to songbook

Transpose chords

Tuning

Rating click stars to rate

Layout
Accuracy

SHARE PAGE  



You need to log in to post comments