Guitar Tabs, Chords and Lyrics


Pasitos   Unknown



Hey guys, this is a hard song to play so when i can move my fingers at string-melting 
i'll have the rest of this song..... till then enjoy!!
tip: sounds best when you use a pick with a classical guitar...

s=Slur


E--------------------------------------------------------------|
B-----------------------6----------------------------6-888-----|
G----5-7-8-7----------5---7-5--------5-7-8-7-5------5----------|
D--5-------------6--4---------s654-5-----------6--4------------|
A--------------------------------------------------------------|
e--------------------------------------------------------------|


E---------------------------------------------------------------|
B-----------------------6----------------------------6-s89868---|
G----5-7-8-7----------5---7-5--------5-7-8-7-5------5-----------|
D--5-------------6--4---------s654-5-----------6--4-------------|
A---------------------------------------------------------------|
e---------------------------------------------------------------|


E--------------------------------------------------------------|
B-----------------------6----------------------------6-888-----|
G----5-7-8-7----------5---7-5--------5-7-8-7-5------5----------|
D--5-------------6--4---------s654-5-----------6--4------------|
A--------------------------------------------------------------|
e--------------------------------------------------------------|


E--------------------------------------------------------------|
B-----------------------6----------------------------6-888-----|
G----5-7-8-7----------5---7-5--------5-7-8-7-5------5----------|
D--5-------------6--4---------s654-5-----------6--4------------|
A--------------------------------------------------------------|
e--------------------------------------------------------------|


E--------------------------------------------------------------|
B-----------------------6----------------------------6-888-----|
G----5-7-8-7----------5---7-5--------5-7-8-7-5------5----------|
D--5-------------6--4---------s654-5-----------6--4------------|
A--------------------------------------------------------------|
e--------------------------------------------------------------|


E---------------------------------------------------------------|
B-----------------------6----------------------------6-s89868---|
G----5-7-8-7----------5---7-5--------5-7-8-7-5------5-----------|
D--5-------------6--4---------s654-5-----------6--4-------------|
A---------------------------------------------------------------|
e---------------------------------------------------------------|

listen to this song for the timing but this tab is 100% accurate. if you have any 
feel free to contact me at Metal_Guitarist_08@yahoo.com.


Important: The song above is NOT stored on the Chordie server. The original song is hosted at www.guitaretab.com. Chordie works as a search engine and provides on-the-fly formatting. Chordie does not index songs against artists'/composers' will. To remove this song please click here.

This song is displayed as text-only. Transposing and tuning is only available for chordpro-songs.

Login - add to songbook

Rating click stars to rate

Layout
Accuracy

SHARE PAGE  




You need to log in to post comments