Guitar Tabs, Chords and Lyrics


Always There For You  Stryper

E--16/17----16-------------------------------16/17----16--------


B-----------------17----14--15----14/15--14---------------------


G---------------------------------------------------------------

D---------------------------------------------------------------
A---------------------------------------------------------------
E---------------------------------------------------------------
E---------------------------16-17-19-17-19-17--16-16/17-16------
B--17--17/19--17----17--19---------------------------------19-17
G---------------------------------------------------------------
D---------------------------------------------------------------
A---------------------------------------------------------------
E---------------------------------------------------------------
E---------------------------------------------------------------
B--17/19--------------------------------------------------------
G---------------------------------------------------------------
D---------------------------------------------------------------
A---------------------------------------------------------------
E---------------------------------------------------------------
[A5]Love can [C#m]be so [Bm]cold [E]
[A5]And loneli[C#m]ness g[Bm]ets old [E]
F#5 E5 D5 D5/C#m/B5 (slide)
More than words or broken promises
[B5]I want to [D5]show you what true[G] love i[E5]s

Chorus
A5 D5 D5/C#m (slide)
I'm always there for you
[B5]I'll always [D5]stand by [A5]you
F#5(no 3rd) F5(no 3rd)
When the world has closed the door
E5(no 3rd) D#5(no3rd)
And you can't go on anymore
[D5]I'm always [E5]there for [A5]you   [D5]    [E5]

Verse 2
You've been hurt before
And you don't want anymore
There's a better way for you
Believe in me, I'll see you through

Chorus

Solo

Chorus (modulate up 1/2 step)
[C-D#-Bb]G-F#-F-E (no 3rd's)
[D#-F-Bb]                                  

Important: The song above is NOT stored on the Chordie server. The original song is hosted at www.guitaretab.com. Chordie works as a search engine and provides on-the-fly formatting. Chordie does not index songs against artists'/composers' will. To remove this song please click here.

Text color:
Chord color:
Chord grids: 
Font size:    
Page size: 

A5 B5 Bm C#m D5 E E5 G
variations - click chord images

Login - add to songbook

Transpose chords

Tuning

Rating click stars to rate

Layout
Accuracy

SHARE PAGE  




You need to log in to post comments