Guitar Tabs, Chords and Lyrics


Renagade   Styx



Chorus:                                                       2 Times
e-----------------------------------------------------------|
B-----------------------------------------------------------|
G--------------5-----------5~~----------5---/5--3~~~~-------|
D-----------3--5---------3>5~~--------3-5---/5--3~~~~-------|
A-----3--5---------3--5---------3--5------------------------|
E-----------------------------------------------------------|
The jig is up...      ^ Play that transition a little faster.
You'll hear what I'm talking about.
                                                              1 Time
e-----------------------------------------------------------|
B-----------------------------------------------------------|
G-----7-7-7--------7-7---------5-5-5--------5-5-------------|
D-----7-7-7--5--5--7-7---------5-5-5--3--3--5-5-------------|
A-----5-5-5--5--5--5-5---------3-3-3--3--3--3-3-------------|
E-----------------------------------------------------------|
      Never more...
                                                              1 Time
e-----------------------------------------------------------|
B-----------------------------------------------------------|
G-------------5-----------5~~~-----------0~~~---------------|
D----------3--5---------3>5~~~--------3--0~~~---------------|
A-----3--5--------3--5----------3--5------------------------|
E-----------------------------------------------------------|
	No vocals under this one

Chorus vocals:
The jig is up, the news is out
They finally found me
The renegade who had it made
Retrieved for a bounty
Never more to go astray
The judge'll have revenge today
On the wanted man
Verse 1 
                                                              4 Times
e------------------------------------------------------------|
B------------------------------------------------------------|
G-----/3--2-0-2-3-2/3-2-0-2-3-2-3-2/3-2/3-2-0---0~~~---------|
D-----/3--2-0-2-3-2/3-2-0-2-3-2-3-2/3-2/3-2-0---0~~~---------|
A------------------------------------------------------------|
E--3---------------------------------------------------------|
   Oh moma Ive been...

Verse 1 Lyrics  
Oh Mama, I've been years on the lam and had a high price on my head
Lawman said 'Get him dead or alive' and it's for sure he'll see me dead
Dear Mama I can hear you cryin', you're so scared and all alone
Hangman is comin' down from the gallows and I don't have very long

                                STYX
                              Renagade


by ledzepp441


Chorus Again (at the top of page)
Next Verse, same as the first.

Right as soon as the verse part ends the solo starts.  At first it is
unaccompanied but there is a keyboard under the rest of it; tabbed here:
Solo backing:
e-----------------------------------------------------------|
B-----------------------------------------------------------|
G-----3--5--3----5p3--------3--5----------------------------|
D-----3--5--3----5p3--------3--5----------------------------|
A---------------------5-------------------------------------|
E--3--------------------------------------------------------|
   
Lyrics (only drum underneath him right after solo)
Oh Mama, I'm in fear for my life from the long arm of the law
Law man has put an end to my running and I'm so far from my home
Chorus
There is the solo backing more until fade out with more soloing.


Important: The song above is NOT stored on the Chordie server. The original song is hosted at www.guitaretab.com. Chordie works as a search engine and provides on-the-fly formatting. Chordie does not index songs against artists/composers will. To remove this song please click here.

This song is displayed as text-only. Transposing and tuning is only available for chordpro-songs.

Login - add to songbook

Rating click stars to rate

Layout
Accuracy

Jango Player

SHARE PAGE  




You need to log in to post comments