Too Much Time On My Hands

Styx

 AA
Riff 1
|-----------|
|-----------|
|---5-7---5-|
|-7-----7---|
|-----------|
|-----------|


Sitting on this barstool talking like a damn fool
Got the twelve oclock news blues (riff 1)

And Ive given up hope on the afternoon soaps
And a bottle of cold brew (riff 1)

 AA
 Is it any wonder Im not crazy? is it any wonder Im sane at all

Well Im so tired of losing
I got nothing to do and all day to do it(riff 1)

I go out cruisin but Ive no place to go and all night to get there (riff 1)

 AA
 Is it any wonder Im not a criminal? Is it any wonder Im not in jail?

Is it any wonder Ive got...
 ABm
 Too much time on my hands, its ticking away with my sanity
 ABm
Ive got too much time on my hands, its hard to believe such a calamity

 ABm
Ive got too much time on my hands and its ticking away from me

Too much time on my hands, too much time on my hands
Too much time on my hands

Solo:
|-14b14b14b14b14b14b14b14b-------------------------------------------------|
|--------------------------------------------------------------------------|
|---------------------------------------------9b-9-7--7--------------------|
|-------------------------12-14-12h14p12-14-12-------9-9-7h9-9-7-9-7h9p7---|
|-----------------------------------------------------------------------9-7|
|--------------------------------------------------------------------------|
|---------------------------------------------------------|
|---------------------------------------------------------|
|----5-7b-7b-5-7b-----5-7-7b-7b-------7~-8~-9~-10~-11~-12~|
|7-9--------------9-9-----------9-7-9---------------------|
|---------------------------------------------------------|
|---------------------------------------------------------|
|--------------------------------------------------------|
|---------12---------------------12----------------------|
|12h14p12----14b-12-14b-12-14b-12---14-12-14-12h14p12----|
|--------------------------------------------------------|
|--------------------------------------------------------|
|--------------------------------------------------------|
|--------------------------------------------|
|--------------------------------------------|
|---------------------9b-9b-7-9-7h9p7-7-5-4--|
|--------------------------------------------|
|----2x3x4x5x6x7x8x9x------------------------|
|--------------------------------------------|


Too much time on my hands
|--------------------------------|
|--------------------------------|
|-14-12-11-9-7-9-7h9p7-9-7-4p2h4-|
|--------------------------------|
|--------------------------------|
|--------------------------------|

too much time on my hands
|-7---------------------------------------------5-|
|---10-7-----10-7-------------------------------5-|
|--------9-7------9-7-9-7-7b-7b-9-9-7-7-9-9-7-7-6-|
|-----------------------------------------------7-|
|-----------------------------------------------7-|
|-----------------------------------------------5-|

Too much time on my hands
|-3-------14b-14b-13b-14b-14b-14b-14b-14b-14b-14b-14b|
|-3--------------------------------------------------|
|-4-9b-9b--------------------------------------------|
|-5--------------------------------------------------|
|-5--------------------------------------------------|
|-3--------------------------------------------------|

Well, Im a jet fuel genius - I can solve the worlds problems
Without even trying (riff 1)

I have dozens of friends and the fun never ends
That is, as long as Im buying (riff 1)

 A
 Is it any wonder Im not the president

 A
 Is it any wonder Im null and void?

Is it any wonder Ive got...

 ABm
 Too much time on my hands, its ticking away at my sanity

 ABm
Ive got too much time on my hands, its hard to believe such a calamity

 ABm
Ive got too much time on my hands and its ticking away from me

Too much time on my hands, too much time on my hands
Too much time on my hands

 ABmC
|-5-| |-7-| |-x-|
|-7-| |-9-| |-3-|
|-7-| |-9-| |-5-|
|-5-| |-7-| |-5-|
|-5-| |-7-| |-5-|
|-5-| |-7-| |-3-|				



A Bm C
variations - click chord images
Transpose chords:
Tuning:
Cool service:
View: Size:
A  A  A
Rating:
Layout:
  • Currently 3/5 Stars.
  • 1
  • 2
  • 3
  • 4
  • 5
 
Accuracy:
  • Currently 0/5 Stars.
  • 1
  • 2
  • 3
  • 4
  • 5
 
click stars to rate
Chordie recommends:
Learn to play guitar with video-based, online guitar lessons at JamPlay.com
Songbook:
Login to add this song to your songbook
Support the artist
Preview/buy this song
MSN Music
Why this non-profit ad?

 
login to add comments/video/corrections