Chordie logo


Us Fish Must Swim Together   Subhumans



Subhumans - Us Fish must swim together

Intro:
e:5---3---7--5---|------|----------------|----------------|----------------|
b:5---3---7--5---|5~~~~-|----------------|----------------|----------------|
g:6---4---8--6---|------|----------------|----------------|----------------|
d:7---5---9--7---|------|----------------|----------------|----------------|
a:7---5---9--7---|------|------5-7---5---|------5-7---5---|------5-7-8-5---|
e:5---3---7--5---|------|5-7-8-----8-----|5-7-8-----8-----|5-7-8-----------|

e:----------------|----------------|----------------|
b:----------------|----------------|----------------|
g:----------------|----------------|----------------|
d:----------------|----------------|----------------|repeat a few times
a:------5-7---5---|------5-7---5---|------5-7-8-5---|
e:5-7-8-----8-----|5-7-8-----8-----|5-7-8-----------|

Verse:
e:5---7--8----------|
b:5---7--9----------|
g:6---8--9----------|
d:7---9-10-xx-xxxxxx|
a:7---9-10-xx-xxxxxx|
e:5---7--8-xx-xxxxxx|

Post Verse:
e:5---7--8-6---8--9-|
b:5---7--9-6---8--9-|
g:6---8--9-6---8--9-|
d:7---9-10-7---9-10-| 2x
a:7---9-10-7---9-10-|
e:5---7--8-5---7--8-|

Verse

Post Verse 2:
e:5---7--8-6---8--9-|-8---7-5-6---8--9-|
b:5---7--9-6---8--9-|-8---7-5-6---8--9-|
g:6---8--9-6---8--9-|-9---8-6-6---8--9-|
d:7---9-10-7---9-10-|10---9-7-7---9-10-|
a:7---9-10-7---9-10-|10---9-7-7---9-10-|
e:5---7--8-5---7--8-|-8---7-5-5---7--8-|

Verse

Post Verse:
e:5---7--8-6---8--9-|
b:5---7--9-6---8--9-|
g:6---8--9-6---8--9-|
d:7---9-10-7---9-10-| 2x
a:7---9-10-7---9-10-|
e:5---7--8-5---7--8-|

Verse

until the end.....



Important: The song above is NOT stored on the Chordie server. The original song is hosted at www.guitaretab.com. Chordie works as a search engine and provides on-the-fly formatting. Chordie does not index songs against artists/composers will. To remove this song please click here.

This song is displayed as text-only. Transposing and tuning is only available for chordpro-songs.

Login - add to songbook

Rating click stars to rate

Layout
Accuracy

SHARE PAGE  




You need to log in to post comments