Guitar Tabs, Chords and Lyrics


Rain   Subhumans



Rain by Subhumans

lavazza@everymail.net

Intro:
e:------------------|------------------|
b:------------------|------------------|
g:11-11-11-13-13-13-|14-14-14-16-16-16-|
d:11-11-11-13-13-13-|14-14-14-16-16-16-|
a:09-09-09-11-11-11-|12-12-12-14-14-14-|
e:------------------|------------------|

e:------------------|------------------|
b:------------------|------------------|
g:18-18-18-18-18-18-|18-18-18-18-18-18-|
d:18-18-18-18-18-18-|18-18-18-18-18-18-|
a:16-16-16-16-16-16-|16-16-16-16-16-16-|
e:------------------|------------------|

Riff1:
e:------------------|
b:------------------|
g:11-11----------12-|
d:11-11-10-11-11-12-|
a:09-09-10-11-11-10-|
e:------08-09-09----|

Well it´s dark outside
And the raining (it´s faling)
And the atmosphere
Is like it always has been

F# (stop) Riff1
Thought of revolution
F# (stop) Riff1
How and why
Jussed pass on by 
Gloom and depression
Faked Deprivation
Well I got no money

Chorus:
e:--------------------|
b:--------------------|
g:/14--/14--/14--/14--|
d:/14--/14--/14--/14--|
a:/12--/12--/12--/12--|
e:--------------------|

Are you depressive? Or depressing?
Or obsessive? Or obsessed?
Someone or no one?
Are you alive or dead?

e:------------------|
b:------------------|
g:------------------|
d:------------------|Bass repeats (1 oktave deeper)
a:12-12-12-10-------|
e:------------13-11-|

Riff1

Do you take your ideas 
from other people?
Surrounded by boredom
you get boring

F# (stop) Riff1
And then you start to enjoy it
F# (stop) Riff1
take all the plugs out
and sit in darkness
It´s dark in your head
you´re not alive anymore
And it´s raining

Chorus

e:------------------|
b:------------------|
g:------------------|
d:------------------|Bass repeats (1 oktave deeper)
a:12-12-12-10-------|
e:------------13-11-|

e:------------------|------------------|
b:------------------|------------------|
g:11-11-11-13-13-13-|14-14-14-16-16-16-|
d:11-11-11-13-13-13-|14-14-14-16-16-16-|
a:09-09-09-11-11-11-|12-12-12-14-14-14-|
e:------------------|------------------|

e:------------------|------------------|
b:------------------|------------------|
g:18-18-18-18-18-18-|18-18-18----------|
d:18-18-18-18-18-18-|18-18-18----------|
a:16-16-16-16-16-16-|16-16-16->>slide

Important: The song above is NOT stored on the Chordie server. The original song is hosted at www.guitaretab.com. Chordie works as a search engine and provides on-the-fly formatting. Chordie does not index songs against artists'/composers' will. To remove this song please click here.

This song is displayed as text-only. Transposing and tuning is only available for chordpro-songs.

Login - add to songbook

Rating click stars to rate

Layout
Accuracy

SHARE PAGE  




You need to log in to post comments