Wrong Way

Sublime

 E5
----------------------------------- --------------------------- -------------------------
----------------------------------- -------------7------------- ----------9--------------
----------------------------------- -------------------7------- ----------------9------7-
-----9------9---------------9------ ---7------7--------------7- -9---(9)----------9\7----
-----7----------------------7------ ---5---------------------5- -7-----------------------
----------------------------------- --------------------------- -------------------------

Annie's twelve years old in two more she'll be a whore No-body ever told her it's the
----------------------------------- --------------------------- -------------------------
-------------7--------------------- ------------------9-------- -----------7-------------
---7----(7)---------7-------------- -----------9--------------- -----------7-----7-------
---7-------------------7----x------ ---9-----------------9\7--- -7----7-------------7----
----------------------------------- ---7----------------------- -5------------------5/7--
----------------------------------- --------------------------- -------------------------

wrong way. Don't be afraid with the quickness you'll get laid for
------------------------------------------- ----------
------------------------------------------- ----------
-----------------9--------------9------7--- --7-------
------9------------------------------9\7--- --7-------
------7------------------------------------ --5-------
------------------------------------------- ----------

your family get paid. It's the wrong way
 A5G5A5G5
 I gave her all that I had to give, I'm gonna make it hard to live
 A5G5A5C
 Soggy tears running down to her chin, and it ruins up her makeup and never wanted
 F#EF#E
 A cigarette pressed between her lips but I'm starin' at her tits, it's the wrong way
 F#EF#E
 Strong if I can, but I am only a man so I take her to the can.  It's the wrong way
 B5A5B5A5
 The only family that she's ever had is her seven horny brothers and her drunk ass dad
 B5A5B5D5
 He needed money so he put her on the street, Everything was goin fine til the day she met
 EDED
 Happy are you sad?Wanna shoot your dad? I'll do anything I can the wrong way
 EDED
 We talk all night, tried to make it right believe me shit was tight, It was the wrong way
 A5G5A5G5
 Don't run away if you wanna stay 'cause I ain't here to make you.         oh, no
 A5G5A5C
 It's up to you, what you really wanna do. Spend some time in America.  ha,  dub style
(Trombone solo)
 B5A5B5A5
 She'll give you all that she got to give, but I'm gonna make it hard to live
 B5A5B5D5
 Big salty tears rollin' down to her chin, and it smears up her makeup and never wanted
 EDED
 So we ran away and I'm sorry when I say that straight to this very day, it was the wrong
 EDED
 She took a hike, it don't matter if I like it or not because she only wants the wrong way
 B5A5B5A5
 I gave her all that I had to give; she still wouldn't take it.       Whoa, no
 B5A5B5D
 Her two brown eyes were leakin' like a sieve and it still ruins up her makeup and never wanted
Here are the chords that are played for the verses, play then in a ska type picking, you can mess around with the strings you strike
 A5B5CDEG5
-5--5-x-5-x-5-- ---7-x-7-x-7-x---- --8--8-x-8-x---- --5--5-5-5---5- -------- ---3-x-3-x-3
-5--5-x-5-x-5-- ---7-x-7-x-7-x---- --8--8-x-8-x---- -----7-7-7---7- -9-x-9-x ---3-x-3-x-3
--------------- ------------------ --9--9-x-9-x---- -----7-7-7----- -9-x-9-x ------------
--------------- ------------------ ---------------- --------------- -------- ------------
--------------- ------------------ ---------------- --------------- -------- ------------


A5 B5 C D D5 E E5 F# G5
variations - click chord images
Transpose chords:
Tuning:
Cool service:
View: Size:
A  A  A
Rating:
Layout:
  • Currently 2.6/5 Stars.
  • 1
  • 2
  • 3
  • 4
  • 5
 
Accuracy:
  • Currently 2.8/5 Stars.
  • 1
  • 2
  • 3
  • 4
  • 5
 
click stars to rate
Chordie recommends:
Learn to play guitar with video-based, online guitar lessons at JamPlay.com
Songbook:
Login to add this song to your songbook
Support the artist
Preview/buy this song
MSN Music
Why this non-profit ad?

 
login to add comments/video/corrections