Guitar Tabs, Chords and Lyrics


A Loverless Bed   Stevens Sufjan



intro+verse+chorus:

e---3-----3-----1-----3-----3-----1-----0-|
B---3-----3-----3-----3-----3-----3-----3-|
G---0-----0-----2-----0-----0-----2-----2-|
D-2-2---1-1---0-0-----2---1-1---0-0-----2-|
A---0-----0-----0---3-3-----0-----0---0-0-|
D---0-----0-----0-----0-----0-----0-----0-|

solo:

e---------------0-1-3-6-5-1-0-1-3-5----------------0-1-3-6-8-11-10-|
B---------0-1-3------------------------------0-1-3-----------------|
G-----0-2--------------------------------0-2-----------------------|
D-2-3--------------------------------2-3---------------------------| 3x
A------------------------------------------------------------------|
D------------------------------------------------------------------|

e-8-6-5p6-|
B---------|
G---------|
D---------|
A---------|


Important: The song above is NOT stored on the Chordie server. The original song is hosted at www.guitaretab.com. Chordie works as a search engine and provides on-the-fly formatting. Chordie does not index songs against artists'/composers' will. To remove this song please click here.

This song is displayed as text-only. Transposing and tuning is only available for chordpro-songs.

Login - add to songbook

Rating click stars to rate

Layout
Accuracy

SHARE PAGE  




You need to log in to post comments