Chordie logo

Transfiguration  Stevens Sufjan

  [C#m]     [B]        [Bm]             [A]                                                                                        
e|--4--|     e|--2--|     e|-----|

B|--5--| B|--3--| B|--2--|
G|--6--| G|--4--| G|--2--|
D|--6--| D|--4--| D|--2--|
A|--4--| A|--2--| A|-----|
E|-----| E|-----| E|-----|


[C#m]When he t[B]ook the three dis[Bm]ciples
to the [A]mountainside to [C#m]pray,
his [B]countenance was [Bm]modified, his [A]clothing was [C#m]aflame.
Two [B]men appeared: [Bm]Moses and [A]Elijah came;
they were at his [C#m]side.
The [B]prophecy, the [Bm]legislation [A]spoke of whenever he would [C#m]die.


[C#m]   [B]  [Bm]    [A]                          
while the chords are playing:
e|---------------------------------------------------------|

B|---9-9-9-9-9-9--7-7-7-7-7-7-7-7-7-7-7-7--5-5-5-5-5-5-----|
G|---------------------------------------------------------| x2
D|---------------------------------------------------------|
A|---------------------------------------------------------|
E|---------------------------------------------------------|

Then there came a word
of what he should accomplish on the day.
Then Peter spoke, to make of them a tabernacle place.
A cloud appeared in glory as an accolade.
They fell on the ground.
A voice arrived, the voice of God,
the face of God, covered in a cloud.

e|---------------------------------------------------------------------------------|

B|---12-10-9-------------14--10-10----14-10-12----12-10-9------14-10-10---14-10----|
G|-----------11---9-11--------------------------------------11---------------------|
D|---------------------------------------------------------------------------------|
A|---------------------------------------------------------------------------------|
E|---------------------------------------------------------------------------------|


[C#m]What [Bm]he s[A]aid to them,
the voice of God: the most beloved son.
Consider what he says to you, consider what's to come.
The prophecy was put to death,
was put to death, and so will the Son.
And keep your word, disguise the vision till the time has come.


(its not 100% correct but its close enough)
e|---------------------------------------------------------------------------------------------------------|

B|---12-10-9-------------14-10-10----14-10-12----12-10-9---------------------------------------14--10--12--|
G|-----------11---9-11------------------------------------11---9-11-------9-11--9-11---9-7-6---------------|
D|-------------------------------------------------------------------7-9---------------------9-------------|
A|---------------------------------------------------------------------------------------------------------|
E|---------------------------------------------------------------------------------------------------------|
e|---------------------------------------------------------------|
B|--------------------------------------------------14-12-10-9---|
G|---9-11-------9-11--9-11--9-11--9-11-----9-7-6-----------------|
D|--------7-9------------------------------------9---------------|
A|---------------------------------------------------------------|
E|---------------------------------------------------------------|
repeat untill end

Lost in the cloud, a voice: Have no fear! We draw near!
Lost in the cloud, a sign: Son of man! Turn your ear!
Lost in the cloud, a voice: Lamb of God! We draw near!
Lost in the cloud, a sign: Son of man! Son of God!

Important: The song above is NOT stored on the Chordie server. The original song is hosted at www.guitaretab.com. Chordie works as a search engine and provides on-the-fly formatting. Chordie does not index songs against artists/composers will. To remove this song please click here.

A B Bm C#m
variations - click chord images

Login - add to songbook

Transpose chords

Tuning

Rating click stars to rate

Layout
Accuracy

SHARE PAGE  

You need to log in to post comments