Guitar Tabs, Chords and Lyrics


American Pig   Sugar Ray



Sugar Ray
"American Pig"
Tuning-Drop Db

Gain 10        }
Treble 10      }Just a starting point
Bass 5         }
Contour 7.5    }


eb|-------------------------|
Bb|-------------------------|
Gb|-------------------------|  X4
Db|-------------------------|         }play this part whenever and it seems to fit
Ab|-0-0-0----1-1-1----------|
Db|-0-0-0----1-1-1----------|


eb|----------------------------------------|
Bb|-10/11/10---------10-11------10---------|
Gb|-----------11-12---------12-------12-11-| X2
Db|----------------------------------------|
Ab|----------------------------------------|
Db|----------------------------------------|

eb|------------------------------------------|
Bb|------------------------------------------|
Gb|------------------------------------------|
Db|------------------------------------------|
Ab|---------6---5-----3--------3-----3--5--3-|


Important: The song above is NOT stored on the Chordie server. The original song is hosted at www.guitaretab.com. Chordie works as a search engine and provides on-the-fly formatting. Chordie does not index songs against artists'/composers' will. To remove this song please click here.

This song is displayed as text-only. Transposing and tuning is only available for chordpro-songs.

Login - add to songbook

Rating click stars to rate

Layout
Accuracy

SHARE PAGE  




You need to log in to post comments