Guitar Tabs, Chords and Lyrics


Jc Auto   Sugar



Artist: Sugar
Song: JC Auto
Album: Beaster EP

Any suggestions/corrections, feel free to offer them.

Intro:

|------------------------------------|
|--4---4-4-4-4-4---------------------|
|--6b8-8-8-8-8-8-6-4-----------------|
|------------------------------------|
|---------------------2-2-2-2-2-2-2--|
|---------------------0-0-0-0-0-0-0--| x4
                 p.m. ^ ^ ^ ^ ^ ^ ^

Verse:

|----------------------------------|
|----------------------------------|
|----9/7---9/7-4-------------------|
|----x-x---x-x-x-------------------|
|----7/5---7/5-2--2-2-2-2-2-2-2-2--|
|--0-----0--------0-0-0-0-0-0-0-0--|
             p.m. ^ ^ ^ ^ ^ ^ ^ ^

Chorus - part 1 ("Somewhere in this song, a little clue to something..."):

|--0-0-0-0-0-0-0-0-0-0-0-0-0-0-0-0--0-0-0-0-0-0-0-0-0-0-0-0-0-0-0-0--|
|--0-0-0-0-0-0-0-0-0-0-0-0-0-0-0-0--0-0-0-0-0-0-0-0-0-0-0-0-0-0-0-0--|
|--4-4-4-4-4-4-4-4-4-4-4-4-4-4-4-4--2-2-2-2-2-2-2-2-2-2-2-2-2-2-2-2--|
|--4-4-4-4-4-4-4-4-4-4-4-4-4-4-4-4--2-2-2-2-2-2-2-2-2-2-2-2-2-2-2-2--|
|--2-2-2-2-2-2-2-2-2-2-2-2-2-2-2-2--0-0-0-0-0-0-0-0-0-0-0-0-0-0-0-0--|
|--------------------------------------------------------------------|x2

Part 2 ("I've got to go with what I know..."):
|--------------------------------------------------------------------|
|--------------------------------------------------------------------|
|--7-7-7-7-7-7-7-7-7-7-7-7-7-7-7-7--2-2-2-2-2-2-2-2-2-2-2-2-2-2-2-2--|
|--7-7-7-7-7-7-7-7-7-7-7-7-7-7-7-7--2-2-2-2-2-2-2-2-2-2-2-2-2-2-2-2--|
|--5-5-5-5-5-5-5-5-5-5-5-5-5-5-5-5--0-0-0-0-0-0-0-0-0-0-0-0-0-0-0-0--|
|--------------------------------------------------------------------|

Part 3 ("On a holiday away"): Repeat part 1

Post Chorus - part 1 ("When there's nothing left to all..."):

|--4-4-4-4-4-4-4-4-4-4-4-4-4-4-4-4--0-0-0-0-0-0-0-0--0-0-0-0-0-0-0-0--|
|--5-5-5-5-5-5-5-5-5-5-5-5-5-5-5-5--0-0-0-0-0-0-0-0--0-0-0-0-0-0-0-0--|
|--6-6-6-6-6-6-6-6-6-6-6-6-6-6-6-6--1-1-1-1-1-1-1-1--4-4-4-4-4-4-4-4--|
|--6-6-6-6-6-6-6-6-6-6-6-6-6-6-6-6--2-2-2-2-2-2-2-2--4-4-4-4-4-4-4-4--|
|--4-4-4-4-4-4-4-4-4-4-4-4-4-4-4-4--2-2-2-2-2-2-2-2--2-2-2-2-2-2-2-2--|
|-----------------------------------0-0-0-0-0-0-0-0-------------------|

Part 2 ("I can't believe in anything.."):

|--4-4-4-4-4-4-4-4--0-0-0-0-0-0-0-0--0-0-0-0-0-0-0-0--0-0-0-0-0-0-0-0--|
|--5-5-5-5-5-5-5-5--0-0-0-0-0-0-0-0--0-0-0-0-0-0-0-0--0-0-0-0-0-0-0-0--|
|--6-6-6-6-6-6-6-6--1-1-1-1-1-1-1-1--4-4-4-4-4-4-4-4--2-2-2-2-2-2-2-2--|
|--6-6-6-6-6-6-6-6--2-2-2-2-2-2-2-2--4-4-4-4-4-4-4-4--2-2-2-2-2-2-2-2--|
|--4-4-4-4-4-4-4-4--2-2-2-2-2-2-2-2--2-2-2-2-2-2-2-2--0-0-0-0-0-0-0-0--|
|-------------------0-0-0-0-0-0-0-0------------------------------------|

Part 3 ("I look like Jesus Christ...")

|--4-4-4-4-4-4-4-4--0-0-0-0-0-0-0-0--|
|--4-4-4-4-4-4-4-4--0-0-0-0-0-0-0-0--|
|--4-4-4-4-4-4-4-4--1-1-1-1-1-1-1-1--|
|--6-6-6-6-6-6-6-6--2-2-2-2-2-2-2-2--|
|--6-6-6-6-6-6-6-6--2-2-2-2-2-2-2-2--|
|--4-4-4-4-4-4-4-4--0-0-0-0-0-0-0-0--|



Important: The song above is NOT stored on the Chordie server. The original song is hosted at www.guitaretab.com. Chordie works as a search engine and provides on-the-fly formatting. Chordie does not index songs against artists'/composers' will. To remove this song please click here.

This song is displayed as text-only. Transposing and tuning is only available for chordpro-songs.

Login - add to songbook

Rating click stars to rate

Layout
Accuracy

SHARE PAGE  




You need to log in to post comments