Chordie logo


Tao   Sugarfree



Song: tao
Artist: Sugarfree
Album: Dramachine(2004)

Tabber: Michael -chico- Rombawa
for friendstertseness : mykro85@yahoo.com
for myspacers & neatvibers: chicoholics@yahoo.com


~ - let ring

Intro

E--------------------------------------|
B--------------------------------------|
G----------5~~~---xxx---5~~~-----------|
D----------5~~~---xxx---5~~~-----------| 
A----------3~~~---xxx---3~~~-----------|
E--------------------------------------|

E--------------------------------------------|
B--------------------------------------------|
G-----------777---------555----7-------------| 
D----555----777---777---555----7-------------|   x4
A----555----555---777---333----5-------------|
E----333----------555------------------------|

Verse

E---------------------------------------|
B---------------------------------------|
G--------555555555555-------------------|
D--------555555555555-------------------|
A--------333333333333-------------------|
E---------------------------------------|

kilala mo ba ako

E-----------------------------------|
B-----------------------------------|
G-----------------------------------|
D-----55555555----------------------|
A-----55555555----------------------|
E-----33333333----------------------|

pag katapos ng gulo

E-----------------------------------|
B-----------------------------------|
G--------77777777-------------------|
D--------77777777-------------------|
A--------55555555-------------------|
E-----------------------------------|

sino ba talaga ako

E---------------------------------------|
B---------------------------------------|
G--------555555555555-------------------|
D--------555555555555-------------------|
A--------333333333333-------------------|
E---------------------------------------|

ako'y katulad mo

E-----------------------------------|
B-----------------------------------|
G-----------------------------------|
D-----55555555----------------------|
A-----55555555----------------------|
E-----33333333----------------------|

na marunong magsalita

E-----------------------------------|
B-----------------------------------|
G--------77777777-------------------|
D--------77777777-------------------|
A--------55555555-------------------|
E-----------------------------------|

nasusugatan nabibigo

Refrain

E-------------------------------|
B-------------------------------|
G-------------------------------|
D-----777777777-----------------|
A-----777777777-----------------|
E-----555555555-----------------|

di niya lang alam 

E------------------------------|
B------------------------------|
G--------55555555--------------|
D--------55555555--------------|
A--------33333333--------------|
E------------------------------|

ako'y naglalaro lang


E---------------------------------|
B---------------------------------|
G---------------------------------|
D-----555555----------------------|
A-----555555----------------------|
E-----333333----------------------|

kailangan din ng pahinga

E---------------------------------|
B---------------------------------|
G--------777777-------------------|
D--------777777-------------------|
A--------555555-------------------|
E---------------------------------|

sa problema

E----------------------------|
B----------------------------|
G----------------------------|
D-----777777-----------------|
A-----777777-----------------|
E-----555555-----------------|

sa prob..ble..ma.....

E----------------------------|
B----------------------------|
G--------555555--------------|
D--------555555--------------|
A--------333333--------------|
E----------------------------|

prob...ble...ma....


2nd verse
kagaya din ng 1st verse refrain tapos hanggang matapos paulit ulit lang...



Important: The song above is NOT stored on the Chordie server. The original song is hosted at www.guitaretab.com. Chordie works as a search engine and provides on-the-fly formatting. Chordie does not index songs against artists/composers will. To remove this song please click here.

This song is displayed as text-only. Transposing and tuning is only available for chordpro-songs.

Login - add to songbook

Rating click stars to rate

Layout
Accuracy

Jango Player

SHARE PAGE  




You need to log in to post comments