Chordie logo


bata Ka Pa   Sugarfree



-------------------------------------------------------------
Batang-bata Ka Pa (intro)
Sugarfree
Tabbed by: pOL
For Comments: e-mail www.paulpiso@yahoo.com

-------------------------------------------------------------

Standard Tuning  EADGBe
-------------------------------------------------------------
Intro:
Lead and Rhythm

--------------------------------------------------
Lead
e|---------3h4-3-----------------|
B|----------------4-4~----6--5~--|
G|-------------------------------|
D|6~-----------------------------|
A|-------------------------------|
E|-------------------------------|

Rhythm
e|-------------------------------|
B|---------4--------6--------5---|
G|5--------5--------6--------6---|
D|6--------5--------6--------6---|
A|6------------------------------|
E|-------------------------------|

--------------------------------------------------
Lead
e|---------3h4-3-----------------|
B|----------------4-4~----6--5~--|
G|-------------------------------|
D|6~-----------------------------|
A|-------------------------------|
E|-------------------------------|


Rhythm
e|-------------------------------|
B|---------4--------6--------5---|
G|5--------5--------6--------6---|
D|6--------5--------6--------6---|
A|6------------------------------|
E|-------------------------------|

--------------------------------------------------

Lead
e|-------------3h4--3-------------------------------|
B|---------------------4--4~---6--------5~----------|
G|--------------------------------------------------|
D|6~------------------------------------------------|
A|--------------------------------------------------|
E|--------------------------------------------------|

Rhythm
e|---------------------------------------4---4--4--4|
B|4--4-4--4-4--4--4-4--4-4--6--6-6--6-6--5---5--5--5|
G|5--5-5--5-5--5--5-5--5-5--6--6-6--6-6--6---6--6--6|
D|6--6-6--6-6--5--5-5--5-5--6--6-6--6-6--6---6--6--6|
A|6--6-6--6-6--3--3-3--3-3--4--4-4--4-4-------------|
E|--------------------------------------------------|

--------------------------------------------------

Lead
e|------------3h4---3---------------------|
B|------------4-----4---4--4----6--------5|
G|5---------------------5--6----6--------6|
D|6---------------------------------------|
A|----------------------------------------|
E|----------------------------------------|

Rhythm
e|---------------------------------------4|
B|4--4-4--4-4--4--4-4--4-4------6--------5|
G|5--5-5--5-5--5--5-5--5-5--6---6--------6|
D|6--6-6--6-6--5--5-5--5-5--6---6--------6|
A|6--6-6--6-6--3--3-3--3-3--4-------------|
E|----------------------------------------|

--------------------------------------------------
intro lang muna, bc pa.. :)

-----------------
wcspec-ppf
La Paz, Iloilo City, Philippines
03-24-07


Important: The song above is NOT stored on the Chordie server. The original song is hosted at www.guitaretab.com. Chordie works as a search engine and provides on-the-fly formatting. Chordie does not index songs against artists/composers will. To remove this song please click here.

This song is displayed as text-only. Transposing and tuning is only available for chordpro-songs.

Login - add to songbook

Rating click stars to rate

Layout
Accuracy

SHARE PAGE  




You need to log in to post comments