Guitar Tabs, Chords and Lyrics


Gaigan Go Home   Suicidal Tendencies



Song:	   Gaigan go home
Band:	   Suicidal Tendencies
Album:	   Freedumb

Tabbed by: Christian Reindel (creindel@gmx.de)
       any questions or corrections- e-mail me

Intro
            3x              1x
G:------------------------------------:
D:-----9-9-9-----------9-9-9----------:
A:-----7-7-7---8--9----7-7-7--8-9-8---:
E:-------------6--7-----------6-7-6---:

Verse

G:---------------------------------:
D:---------------------------------:
A:--6-6----------------------------:
E:------5-5-6--6-5-----------------:

Chorus 

G:---------------------------------:
D:--8-8----------------------------:
A:--6-6-7-7-8--8-7-----------------:
E:------5-5-6--6-5-----------------:

            3x              1x
G:------------------------------------:
D:-----9-9-9-----------9-9-9----------:
A:-----7-7-7---8--9----7-7-7--8-9-8---:
E:-------------6--7-----------6-7-6---:

back to verse

Bridge

G:----------------------------------:
D:----------------------------------:
A:--4-4-/-8-8----4-4-/-10-10-10-----:
E:--2-2-/-6-6----2-2-/--8--8--8-----:

G:----------------------------------:
D:----------------------------------:
A:--4-4-/-8-8----4-4-4--------------:


Important: The song above is NOT stored on the Chordie server. The original song is hosted at www.guitaretab.com. Chordie works as a search engine and provides on-the-fly formatting. Chordie does not index songs against artists/composers will. To remove this song please click here.

This song is displayed as text-only. Transposing and tuning is only available for chordpro-songs.

Login - add to songbook

Rating click stars to rate

Layout
Accuracy

SHARE PAGE  




You need to log in to post comments