""; ?> Possessed To Skate by Suicidal Tendencies - guitar chords, guitar tabs and lyrics - chordie

Possessed To Skate

Suicidal Tendencies

Intro

E-------|
B-------|
G-------|
D-------|

A-10-\--|
E-------|
E---------------------------------|
B---------------------------------|
G-----------------5-5-5\4-4-4\3-3-|
D-----2p0-1p0-----5-5-5\4-4-4\3-3-|
A-0-0---------3p0-3-3-3\2-2-2\1-1-|
E---------------------------------| Rpt 2 X


Guitar 1
E[-----------------------------------------------------------------|
B[-----------------------------------------------------------------|
G[-----------------5-5-5\4-4-4\3-3-----------------5-5-5\4-4-4\3-3-|
D[-----2p0-1p0-----5-5-5\4-4-4\3-3-----2p0-1p0-----5-5-5\4-4-4\3-3-|
A[-0-0---------3p0-3-3-3\2-2-2\1-1-0-0---------3p0-3-3-3\2-2-2\1-1-|
E[-----------------------------------------------------------------|

[Guitar 2
E[-----------------------------------------------------------------|
B[-----------------------------------------------------------------|
G[-----------------5-5-5\4-4-4\3-3-2---------------5-5-5\4-4-4\3-3-|
D[-----------------5-5-5\4-4-4\3-3-2---------------5-5-5\4-4-4\3-3-|
A[-----------------3-3-3\2-2-2\1-1-0---------------3-3-3\2-2-2\1-1-|
E[-----------------------------------------------------------------|


ph ph ph
E----------------------------|
B----------------------------|
G----------------------------|
D----------------------------|
A-----5-----4-----3-----3/4/-|
E-3-3---3-3---3-3---3-3-1/2/-| Rpt


Main / Verse Riff

 ---Ligbt PM--
    PM  PM
E----------------------------|
B----------------------------|
G---------------2-2---5---5--|
D---------------2-2---5---5--|
A-0-0-0-0-0-0-0-0-0-0---0----|
E----------------------------| Rpt 8 X


Mini Chorus

E-----------------------------|
B-----------------------------|
G-----------------------------|
D-----------------------------|
A-5-5-5\4-4-4-5-5-5\4-4-4-5/6-|
E-3-3-3\2-2-2-3-3-3\2-2-2-3/4-|


Rpt Verse Riff 4 X

Chorus

 [---PM---]    [---PM---]  [PM-] [PM-]  [---PM---]
E-------------------------------------------------|
B-------------------------------------------------|
G-2---------4------------5------4-----2-----------|
D-2---------4------------5------4-----2-----------|
A-0-0-0-0-0-2--0-0-0-0-0-3--0-0-2-0-0-0-0-0-0-0-0-|
E-------------------------------------------------| Rpt


Guitar 1
      [----------PM-----------]
E[---0-------------------------|
B[---0-------------------------|
G[-----------------------------|
D[-2---------------------------|
A[-2---2-2-2-2-2-2-2-2-2-2-2-2-|
E[-0---0-0-0-0-0-0-0-0-0-0-0-0-|

[Guitar 2
 [    [------PM------]Pick Scrape
E[---0-------------------------|
B[---0-------------------------|
G[-----------------------------|
D[-2-------------------\-\-----|
A[-2---2-2-2-2-2-2-2-2--\-\----|
E[-0---0-0-0-0-0-0-0-0---------|


Rpt Verse Riff 4 X
Rpt Chorus

Backing for guitar solo = Verse Riff 8 X

Rpt Verse Riff 4 X
Rpt Chorus
Rpt Verse Riff 4 X

E-------------------------------------------------------------------|
B-------------------------------------------------------------------|
G-------------------------------------------------------------------|
D-------------------------------2--------------(2)------------------|
A-5-5-5\4-4-4-5-5-5\4-4-4-5-0-2-0--------------(0)------------------|
E-3-3-3\2-2-2-3-3-3\2-2-2-3-----------------------------------------|


END


variations - click chord images
Transpose chords:
Tuning:
Cool service:
View: Size:
A  A  A
Rating:
Layout:
  • Currently 0/5 Stars.
  • 1
  • 2
  • 3
  • 4
  • 5
 
Accuracy:
  • Currently 3.8/5 Stars.
  • 1
  • 2
  • 3
  • 4
  • 5
 
click stars to rate
Chordie recommends:
Get acoustic guitar lessons and electric guitar lessons at JamPlay.com
Songbook:
Login to add this song to your songbook
Support the artist
Preview/buy this song
MSN Music
Why this non-profit ad?

 
login to add comments/video/corrections