Chordie logo


32 Ways To Die   Sum 41



-------------------------------------------------------------------------------
			     32 Ways To Die - Sum 41
-------------------------------------------------------------------------------
Tabbed by: Punk P-Bassist
Email: sniperscope308@hotmail.com

Tuning: Standard

There were no tabs for this, so here it is, and yes, it's only two sections long
it's a minute and a half, and the first half is a sweet drum solo

^  means use a whammy pedal on that note, so to simplify, use a whammy
pedal on all of the lead notes in the main riff


Intro
Lead + Rhythm
e|--------------------------------------------------------|
B|--------------------------------------------------------|
G|-9-9-9-9-/-10-10-10-10-/-12-12-12-12-\-10-10-10-10-\-9~-|
D|-9-9-9-9-/-10-10-10-10-/-12-12-12-12-\-10-10-10-10-\-9~-|
A|-7-7-7-7-/--8--8--8--8-/-10-10-10-10-\--8--8--8--8-\-7~-|
E|--------------------------------------------------------|

PICKSLIDE DOWN

Main Riff
Lead
e|----------------------------|
B|-^-^--^-^--^-^---^--^--^--^-|
G|-8-8--9-9--8-8--10-10-10-10-|
D|----------------------------|
A|----------------------------|
E|----------------------------|

e|----------------------------|
B|-^-^--^-^--^-^---^--^--^--^-|
G|-8-8--9-9--8-8--10-10-10-10-|
D|----------------------------|
A|----------------------------|
E|----------------------------|

e|----------------------------|
B|-^-^--^-^--^-^---^--^--^--^-|
G|-8-8--9-9--8-8--10-10-10-10-|
D|----------------------------|
A|----------------------------|
E|----------------------------|

e|----------------------------|
B|-^-^--^-^--^-^---^--^--^----|
G|-8-8--9-9--8-8--10-10--8~~~-|
D|----------------------------|
A|----------------------------|
E|----------------------------|

Rhythm
e|------------------------|
B|------------------------|
G|------------------------|
D|-2-2--3-3--2-2--5-5-5-5-|
A|-2-2--3-3--2-2--5-5-5-5-|
E|-0-0--1-1--0-0--3-3-3-3-|

e|------------------------|
B|------------------------|
G|------------------------|
D|-2-2--3-3--2-2--5-5-5-5-|
A|-2-2--3-3--2-2--5-5-5-5-|
E|-0-0--1-1--0-0--3-3-3-3-|

e|------------------------|
B|------------------------|
G|------------------------|
D|-2-2--3-3--2-2--5-5-5-5-|
A|-2-2--3-3--2-2--5-5-5-5-|
E|-0-0--1-1--0-0--3-3-3-3-|

e|------------------------|
B|------------------------|
G|------------------------|
D|-2-2--3-3--2-2--5-5--2~-|
A|-2-2--3-3--2-2--5-5--2~-|
E|-0-0--1-1--0-0--3-3--0~-|


| /  slide up
| \  slide down
| h  hammer-on
| p  pull-off
| ~  vibrato
| +  harmonic
| x  Mute note
===============================================================================


Important: The song above is NOT stored on the Chordie server. The original song is hosted at www.guitaretab.com. Chordie works as a search engine and provides on-the-fly formatting. Chordie does not index songs against artists/composers will. To remove this song please click here.

This song is displayed as text-only. Transposing and tuning is only available for chordpro-songs.

Login - add to songbook

Rating click stars to rate

Layout
Accuracy

SHARE PAGE  




You need to log in to post comments