Guitar Tabs, Chords and Lyrics


Anic   Sum 41



			    Sum 41 kicks ass
                                 A.N.I.C
Tabbed by:me
sounds 100% to me

intro
e|---------------------------|
B|-------x-x-0---------------|
G|---------------------------|
D|-4444--------------------4-|
A|-4444--------------------4-|
E|-2222--------------------2-|

verse
e|---------------------|
B|---------------------|
G|-----------7777\4444-|
D|-4444/7777-7777\4444-|
A|-4444/7777-5555\2222-|
E|-2222/5555-----------|

chorus
e|--------------------|
B|--------------------|
G|----------------5---|
D|-2xxx-2xxx-2xxx-5-5-|
A|-2xxx-2xxx-2xxx-3-5-|
E|-0xxx-0xxx-0xxx---3-|

asshole part
e|---------------------|
B|---------------------|
G|-----------7~7~-4~4~-|
D|-4~4~-7~7~-7~7~-4~4~-|
A|-4~4~-7~7~-5~5~-2~2~-|
E|-2~2~-5~5~-----------|

outro
e|-7~-----------|
B|----12~12v\p0-|
G|--------------|
D|--------------|
A|--------------|
E|--------------|

thats it.



Important: The song above is NOT stored on the Chordie server. The original song is hosted at www.guitaretab.com. Chordie works as a search engine and provides on-the-fly formatting. Chordie does not index songs against artists/composers will. To remove this song please click here.

This song is displayed as text-only. Transposing and tuning is only available for chordpro-songs.

Login - add to songbook

Rating click stars to rate

Layout
Accuracy

Jango Player

SHARE PAGE  




You need to log in to post comments