Chordie logo

Three Colours   Sunset Rubdown



Tabbed by:CMM
Email:colin_michael_muppet@hotmail.com

Spencer Krug's (of Wolf Parade) side project, Sunset Rubdown.
http://www.absolutelykosher.com/sunsetrubdown.htm

Song:Three Colours
Album:Sunset Rubdown EP

Tuning: Standard

(Riff One)
e|-------------------------------------------------------------------------|
B|--7---7---7---7---7---7---7---7---7---7---7---7---7---7---7---7---7---7--|
G|----6---6---6---6---6---6---6---6---6---6---6---6---6---6---6---6---6----|
D|-------------------------------------------------------------------------|
A|-------------------------------------------------------------------------|
E|-------------------------------------------------------------------------|

(Riff Two)
e|--9--7----------------------------|
B|--------10-9-----------------7----|
G|-----------------9--9--6--9-------|
D|----------------------------------|
A|----------------------------------|
E|----------------------------------|

(Riff Three)
e|--------------------------------|
B|-10-9---7-----------------------|
G|-----------9---6-6-9-6----------|
D|------------------------7-------|
A|---------------------------9----|
E|--------------------------------|

(Riff Four)
e|----------------------------|
B|----------------------------|
G|--7-6-----------------------|
D|-------9--7--6--------------|
A|----------------9--7-7--9---|
E|----------------------------|

(Riff Five)
e|----------------------|
B|----------------------|
G|--7-6-------------6-7-|
D|-------9--7--6--------|
A|----------------9-----|
E|----------------------|

(Pre-outro)
e|--------------------------------------------------------------|
B|-7-----------7-----------7-----------7-----------7------------|
G|----7-----------7-----------7-----------7-----------7---------|
D|-------4--4--------4--4--------4--4--------4--4--------4--4---|
A|--------------------------------------------------------------|
E|--------------------------------------------------------------|

NOTE: This tab takes some explaining. These riffs are played very often and on top of 
harmonizing. Using the lyrics below I have tried my best to explain when they coordinate 
eachother and which ones. RF1 means Riff One, RF2 means Riff Two, and so on.

(Lyrics/Riff Coordination)

(RF1)

(RF2)                                       (RF2+3)(RF3)
Do you believe that you belong to something?       I can't believe that I
                 (RF1)(RF2)                                     (RF2+3)
belong to nothing.    Do you believe that you belong to someone?
(RF3+4+5)                                   (RF4+5)
I can't believe that I belong to no one and I can't believe that I belong
           (RF3)(RF1)(RF2) (RF2+3) (RF3) (RF1)  (RF3+4+5)
to no one.                                      Do you believe that you
                     (RF4+5)                                       (RF3)
belong to somewhere? Well I can't believe that I belong to nowhere.
(RF1) (RF4+5)                                      (RF3)

      And I can't believe that I belong to nowhere.
(Pre-Outro)                                   (RF1)
Do you see the three colours? Do you see them? Do you see?


| /  slide up
| \  slide down
| h  hammer-on
| p  pull-off
| ~  vibrato
| +  harmonic
| x  Mute note


Important: The song above is NOT stored on the Chordie server. The original song is hosted at www.guitaretab.com. Chordie works as a search engine and provides on-the-fly formatting. Chordie does not index songs against artists/composers will. To remove this song please click here.

This song is displayed as text-only. Transposing and tuning is only available for chordpro-songs.

Login - add to songbook

Rating click stars to rate

Layout
Accuracy

SHARE PAGE  

You need to log in to post comments