Guitar Tabs, Chords and Lyrics


Addictions   Superbus



-------------------------------------------------------------------------------
			     Addictions - Superbus
-------------------------------------------------------------------------------
Tabbed by: BlackSuga
Email: blacksuga971@hotmail.com

Tuning: Standard

Intro : 2 mesures, puis :

e|----------------|
B|----------------|
G|--13----13------|
D|-----13----13---| x 6
A|----------------|
E|----------------|

Couplet 1 : "Mords-toi la langue" :

e|----------------|
B|----------------|
G|--13----13------|
D|-----13----13---| x 15
A|----------------|
E|----------------|


Refrain A (1ère guitare) : 

J'additionne les      addictions  Je collectionne à ma façon

e|-------------------------------------------------------------------|
B|-------------------------------------------------------------------|
G|-------------------------------------------------------------------|
D|--6-6-6-6-6-6-6-6-9-9-9-9-9-9-9-9-4-4-4-4-4-4-4-2-2-2-2-2-2-2-2----| x 2
A|--6-6-6-6-6-6-6-6-9-9-9-9-9-9-9-9-4-4-4-4-4-4-4-2-2-2-2-2-2-2-2----|
E|--4-4-4-4-4-4-4-4-7-7-7-7-7-7-7-7-2-2-2-2-2-2-2-0-0-0-0-0-0-0-0----|

Refrain B (1ère guitare) : "Et je jette ..."

e|-------------------------------------------------------------------|
B|-------------------------------------------------------------------|
G|-------------------------------------------------------------------|
D|--6-6-6-6-6-6-6-6-9-9-9-9-9-9-9-9-4-4-4-4-4-4-4-2-2-2-2-2-2-2-2----| x 2
A|--6-6-6-6-6-6-6-6-9-9-9-9-9-9-9-9-4-4-4-4-4-4-4-2-2-2-2-2-2-2-2----|
E|--4-4-4-4-4-4-4-4-7-7-7-7-7-7-7-7-2-2-2-2-2-2-2-0-0-0-0-0-0-0-0----|

Refrain B (2ème guitare) "Et je jette ..."
e|--------------------14----------14----------------------------------|
B|-------------------------16----------16-----------------------------|
G|--15b16b15b16b15--------------------------13--16--15----------------|
D|--------------------------------------------------------------------| x 2
A|--------------------------------------------------------------------|
E|--------------------------------------------------------------------|

Couplet 2 : "Mords-toi la langue"


e|----------------|
B|----------------|
G|--13----13------|
D|-----13----13---| x 15
A|----------------|
E|----------------|

Refrain A & B

Pont

Couplet 3


Refrain A & B


Outro (1ère guitare)

e|-------------------------------------------------------------------|
B|-------------------------------------------------------------------|
G|-------------------------------------------------------------------|
D|--6-6-6-6-6-6-6-6-9-9-9-9-9-9-9-9-4-4-4-4-4-4-4-2-2-2-2-2-2-2-2----| x 2
A|--6-6-6-6-6-6-6-6-9-9-9-9-9-9-9-9-4-4-4-4-4-4-4-2-2-2-2-2-2-2-2----|
E|--4-4-4-4-4-4-4-4-7-7-7-7-7-7-7-7-2-2-2-2-2-2-2-0-0-0-0-0-0-0-0----|

Outro (2ème guitare)
e|--------------------14----------14----------------------------------|
B|-------------------------16----------16-----------------------------|
G|--15b16b15b16b15--------------------------13--16--15---16-----------|
D|--------------------------------------------------------------------| x 2
A|--------------------------------------------------------------------|
E|--------------------------------------------------------------------|
 

| b  bend
| /  slide up
| \  slide down
| h  hammer-on
| p  pull-off
| ~  vibrato
| +  harmonic
| x  Mute note
===============================================================================


Important: The song above is NOT stored on the Chordie server. The original song is hosted at www.guitaretab.com. Chordie works as a search engine and provides on-the-fly formatting. Chordie does not index songs against artists'/composers' will. To remove this song please click here.

This song is displayed as text-only. Transposing and tuning is only available for chordpro-songs.

Login - add to songbook

Rating click stars to rate

Layout
Accuracy

SHARE PAGE  




You need to log in to post comments