Chordie logo

Anytime And Anywhere   Superfly



THIS IS MAINLY IT1

E---------------------------------------------
B---------------------------------------------
G---------------------------------------------
D---------6-----------------------------------
A---------4---6--------10-------4-------------
E-------------4--------8--------2-------------

Pre-chorus
E---------------------------------------------
B---------------------------------------------
G---------------------------------------------
D------6--------------------------------------
A------4---6--------10----------4-------------


Important: The song above is NOT stored on the Chordie server. The original song is hosted at www.guitaretab.com. Chordie works as a search engine and provides on-the-fly formatting. Chordie does not index songs against artists/composers will. To remove this song please click here.

This song is displayed as text-only. Transposing and tuning is only available for chordpro-songs.

Login - add to songbook

Rating click stars to rate

Layout
Accuracy

SHARE PAGE  



You need to log in to post comments