Guitar Tabs, Chords and Lyrics


Rade   Superhiks




    Superhiks
    Rade

    Zdravo batki. Vaka.Pesnava se sostoi od dve gitari. Vo refrenot rifovite ne se 
pa napisani jas kako so mislam deka se(otprilika)

    Voved

    I gitara
e|------------------------------------------|
B|------------------------------------------|
G|------------------------------------------|I gitara drzi ritam duri II
D|------7-----------------------------------|gitara si go sviri svoeto
A|------7-----------------------------------|
E|------5-----------------------------------|

    II gitara

e|------------------5-----------------------5----|
B|---------------9-----7--5--3--5--7--5--9-------|
G|-----------------------------------------------|
D|-----------------------------------------------|
A|-----------------------------------------------|
E|-----------------------------------------------|
I gitara
e|------------------------------------------------------------|
B|------------------------------------------------------------|
G|----------9-9-9-9-7-7-7-7-9-9-9-9---------9-9-9-9-7-6-4-3---|
D|--7-7-7-7-9-9-9-9-7-7-7-7-9-9-9-9-7-7-7-7-9-9-9-9-7-6-4-3---|
A|--7-7-7-7-7-7-7-7-5-5-5-5-7-7-7-7-7-7-7-7-7-7-7-7-5-4-2-1---|
E|--5-5-5-5-------------------------5-5-5-5-------------------|
I gitara
e|----------------|
B|----------------|
G|----7-9---7-9---|
D|--7-7-9-7-7-9---|2 pati
A|--7-5-7-7-5-7---|
E|--5-----5-------|
I gitara
e|------------------------------------------------------------|
B|------------------------------------------------------------|
G|----------9-9-9-9-7-7-7-7-9-9-9-9---------9-9-9-9-7-6-4-3---|
D|--7-7-7-7-9-9-9-9-7-7-7-7-9-9-9-9-7-7-7-7-9-9-9-9-7-6-4-3-7-|
A|--7-7-7-7-7-7-7-7-5-5-5-5-7-7-7-7-7-7-7-7-7-7-7-7-5-4-2-1-7-|
E|--5-5-5-5-------------------------5-5-5-5-----------------5-|
I gitara
  I strofa
e|----------------------------------|
B|----------------------------------|
G|----------9-9-9-9-7-7-7-7-9-9-9-9-|4 pati
D|--7-7-7-7-9-9-9-9-7-7-7-7-9-9-9-9-|
A|--7-7-7-7-7-7-7-7-5-5-5-5-7-7-7-7-|
E|--5-5-5-5-------------------------|
  Lele pak e Rade sam postojano e nasmean....
I gitara
e|--------------|
B|--------------|
G|--------------|
D|--7-4-2-------|4 pati
A|--7-4-2-------|
E|--5-2-0-------|
   Samo vesel tip...

I gitara
  II strofa
e|----------------------------------|
B|----------------------------------|
G|----------9-9-9-9-7-7-7-7-9-9-9-9-|4 pati
D|--7-7-7-7-9-9-9-9-7-7-7-7-9-9-9-9-|
A|--7-7-7-7-7-7-7-7-5-5-5-5-7-7-7-7-|
E|--5-5-5-5-------------------------|
  Lele pak e Rade sam postojano e nasmean....
I gitara
e|--------------|
B|--------------|
G|--------------|
D|--7-4-2-------|4 pati
A|--7-4-2-------|
E|--5-2-0-------|
   Samo vesel tip...
I gitara
  refren
e|------------------------------------|
B|------------------------------------|
G|----------9-9-9-9-------------------|3 pati
D|--9-9-9-9-9-9-9-9-7-7-7-7-5-5-4-4---|
A|--9-9-9-9-7-7-7-7-7-7-7-7-5-5-4-4---|
E|--7-7-7-7---------5-5-5-5-3-3-2-2---|
   E Rade kakov covek kakva genijalnost...
I gitara
e|-------|
B|-------|
G|-------|
D|--2-2--|
A|--2-2--|
E|--0-0--|
 vesela maestralnost
I gitara
e|----------------------------------|
B|----------------------------------|
G|----------9-9-9-9-7-7-7-7-9-9-9-9-|2 pati
D|--7-7-7-7-9-9-9-9-7-7-7-7-9-9-9-9-|
A|--7-7-7-7-7-7-7-7-5-5-5-5-7-7-7-7-|
E|--5-5-5-5-------------------------|
I gitara
e|------------------------------------------------------------|
B|------------------------------------------------------------|
G|----------9-9-9-9-7-7-7-7-9-9-9-9---------9-9-9-9-7-6-4-3---|
D|--7-7-7-7-9-9-9-9-7-7-7-7-9-9-9-9-7-7-7-7-9-9-9-9-7-6-4-3-7-|
A|--7-7-7-7-7-7-7-7-5-5-5-5-7-7-7-7-7-7-7-7-7-7-7-7-5-4-2-1-7-|
E|--5-5-5-5-------------------------5-5-5-5-----------------5-|

I gitara
  III strofa
e|----------------------------------|
B|----------------------------------|
G|----------9-9-9-9-7-7-7-7-9-9-9-9-|4 pati
D|--7-7-7-7-9-9-9-9-7-7-7-7-9-9-9-9-|
A|--7-7-7-7-7-7-7-7-5-5-5-5-7-7-7-7-|
E|--5-5-5-5-------------------------|
  Lele pak e Rade sam postojano e nasmean....
I gitara
e|--------------|
B|--------------|
G|--------------|
D|--7-4-2-------|4 pati
A|--7-4-2-------|
E|--5-2-0-------|
   Samo vesel tip...
I gitara
  refren
e|------------------------------------|
B|------------------------------------|
G|----------9-9-9-9-------------------|3 pati
D|--9-9-9-9-9-9-9-9-7-7-7-7-5-5-4-4---|
A|--9-9-9-9-7-7-7-7-7-7-7-7-5-5-4-4---|
E|--7-7-7-7---------5-5-5-5-3-3-2-2---|
   E Rade kakov covek kakva genijalnost...
I gitara
e|-------|
B|-------|
G|-------|
D|--2-2--|
A|--2-2--|
E|--0-0--|
 vesela maestralnost
I giara
e|--------------|
B|--------------|
G|-----9--6-11--|12 pati
D|--9--9--6-11--|
A|--9--7--4--9--|
E|--7-----------|
 E Rade ,e Rade ...
I gitara
e|-------|
B|-------|
G|-------|
D|--7----|
A|--7----|
E|--5----|



Important: The song above is NOT stored on the Chordie server. The original song is hosted at www.guitaretab.com. Chordie works as a search engine and provides on-the-fly formatting. Chordie does not index songs against artists'/composers' will. To remove this song please click here.

This song is displayed as text-only. Transposing and tuning is only available for chordpro-songs.

Login - add to songbook

Rating click stars to rate

Layout
Accuracy

SHARE PAGE  




You need to log in to post comments