Guitar Tabs, Chords and Lyrics


All Angels Cry  Superman Is Dead

Can you tell me [A5]why, the world is so [E5]ugly
And there a[D5]in’t no pretty p[E5]ictures everywhere I [A5]go
Spend some of your [A5]time, and think of the [E5]answer
Why must [D5]people get so s[E5]cared most of their[A5] life

Now tell me [D5]why
Why the [A5]angels gonna cry
To see the [A5]way we live our lives, where this, the [E5]heart goes?
And tell me [D5]why
Why the a[A5]ngels gonna cry
I close my [E5]eyes and a [D5]better [E5]place will it [A5]come true

Walking down the [A5]street, in one bloody [E5]cold night
Where every[D5]one is blind, they [E5]show you how to feed your [A5]hate
Education [A5]now, war for to[E5]morrow
And I [D5]do believe we’re [E5]living on a [A5]time bomb!
e|------5---------5----------------------------------------------------------|
B|--------5---------5-------9---------9---------7---------9---------5--------|
G|----6-----6---6-----6---9---9-----9---9-----7---7-----9---9-----6---6------|
D|------------------------------9---------9---------7---------9---------7----|
A|----------------------7---------7---------5---------7----------------------|
E|--5---------5-------------------------------------------------5---------5--|
e|--5~-4~-----------5~-4~-------------4~-5~--|
B|--------7~-5~-2~--------7-5-7~-5-3~--------|
G|-------------------------------------------|
D|-------------------------------------------|
A|-------------------------------------------|
E|-------------------------------------------|

Important: The song above is NOT stored on the Chordie server. The original song is hosted at www.guitaretab.com. Chordie works as a search engine and provides on-the-fly formatting. Chordie does not index songs against artists'/composers' will. To remove this song please click here.

Text color:
Chord color:
Chord grids: 
Font size:    
Page size: 

A5 D5 E5
variations - click chord images

Login - add to songbook

Transpose chords

Tuning

Rating click stars to rate

Layout
Accuracy

SHARE PAGE  




You need to log in to post comments