Guitar Tabs, Chords and Lyrics


Bad Bad Bad   Supersuckers



Tune down half step, D#, G#, C#, F#, A#, D#


Intro-strum last chord alot
E--------------|
B--------------|
G--------------|
D---6---9---11-|
A---6---9---11-|
E---4---7---9--|

Verse
E---------------------------------------------|
B---------------------------------------------|
G--------------4-44-444---6-66-666---6-66-666-|
D---6-66-666---4-44-444---6-66-666---6-66-666-|
A---6-66-666---2-22-222---4-44-444---4-44-444-|
E---4-44-444----------------------------------|

Then at the end, hold the last chord

Chorus

   BAD BAD BAD
E---------------------|
B---------------------|
G-------------------4-|
D---6---6---6---4---4-|
A---6---6---6---4---2-|
E---4---4---4---2-----|

Bridge - you get the strumming...listen to the song damn it!

E-----------------|
B-----------------|
G-------4---6---9-|
D---6---4---6---9-|
A---6---2---4---7-|
E---4-------------|

Double time the bridge for the solo

Outro

E-------------------|
B-------------------|
G-------------------|
D---6-5-4-5-6-5-4-5-|
A---6-5-4-5-6-5-4-5-|
E---4-3-2-3-4-3-2-3-|



Important: The song above is NOT stored on the Chordie server. The original song is hosted at www.guitaretab.com. Chordie works as a search engine and provides on-the-fly formatting. Chordie does not index songs against artists/composers will. To remove this song please click here.

This song is displayed as text-only. Transposing and tuning is only available for chordpro-songs.

Login - add to songbook

Rating click stars to rate

Layout
Accuracy

SHARE PAGE  




You need to log in to post comments