Chordie logo

Sleepy Vampire  Supersuckers

e--0-0---------------------------|


B--------------------------------|


G------4-2-2-0----2-4-2-0--------|


D-------------------------2------|


A--------------------------------| (2X?)


E--------------------------------|




She's a [Em]sleepy [C]vampire

[D]She'll be up all[Em] night

[Em]Kickin feet and [C]two wide

Just a s[D]hadow in the candle[Em]light


BRIDGE

Yea[Am] but thats allright

She'll b[G]e fine fine fine

Yea th[Am]ats allright

Shes all[D] mine


CHORUS

But it's [D]long over[G]due

[Bm]And much too good to be [Em]true

Yea it's in my[Am] blood, i[D]ts in her eyes

Far b[D]etween and way too [G]few

But[Bm] I hope it happens to [Em]you

Yea [Am]it's like a flood, like a [D]fire


(then this riff)

e---------------|
B---------------|
G--4-2-2-0------|
D-----------2---|
A---------------|
E---------------|				


Important: The song above is NOT stored on the Chordie server. The original song is hosted at www.guitaretab.com. Chordie works as a search engine and provides on-the-fly formatting. Chordie does not index songs against artists/composers will. To remove this song please click here.

Am Bm C D Em G
variations - click chord images

Login - add to songbook

Transpose chords

Tuning

Rating click stars to rate

Layout
Accuracy

SHARE PAGE  



You need to log in to post comments