""; ?> Lowly by Surg - guitar chords, guitar tabs and lyrics - chordie

Lowly

Surg

 AmE
 -0-  -0-|
-1- -0-|
-2- -1-|
-2- -2-|
-0- -2-|
-X- -0-

Intro
(Patrick=guitar 1(chords))(Eric=guitar 2)
 AmAmAmAm
e:----------------------------------------|
B:----------------------------------------|
G:-------------------------0-----------2--|
D:---------------------2------3-2-2/3-----|
A:p(12\0)--2(3)b(2)p0---------------------|
E:----------------------------------------|


 AmAmAmAm
---------------------------------|
---------------------------------|
------------------0-----------2--|
--------------2------3-2-2/3-----|
--2(3)b(2)p0---------------------|
---------------------------------|


 AmAmAmAm
---------------------------------|
---------------------------------|
------------------0-----------2--|
--------------2------3-2-2/3-----|
--2(3)b(2)p0---------------------|
---------------------------------|


 AmAmAmAm
---------------------------------|
---------------------------------|
------------------0-----------2--|
--------------2------3-2-2/3-----|
--2(3)b(2)p0---------------------|
---------------------------------|


Verse:

 AmAmAmAm
e:-------------------|
B:-------------------|
G:----------8-7------|
D:------8-7-----8-7--|
A:-7-10--------------|
E:-------------------|


Chorus:

 E
e:-----------------------|
B:-------0---------------|
G:---1-2---2-1-2-1-------|
D:-2---------------2-0---|
A:-----------------------|
E:-----------------------|


 E
-----------------------|
-------0---------------|
---1-2---2-1-2-1-------|
-2---------------2-0---|
-----------------------|
-----------------------|


 E
-----------------------|
-------0---------------|
---1-2---2-1-2-1-------|
-2---------------2-0---|
-----------------------|
-----------------------|


 E
---------------------0-|
-------0---------------|
---1-2---2-1-2-1-------|
-2---------------2-0---|
-----------------------|
-----------------------|


Verse 1:

listen to this lowly song
you listen to it's not too long
and finding how to make it wrong
its not why I've come

Verse 2:

and come to get another taste
I try to stay right in my place
And keep my business to my face
And that's not why I've come

Chorus:

To keep my own distance
>From the wrong places
Where I'm not meant to be
Not meant to

Verse 3:

come to get another taste
I try to stay right in my place
And keep my business to my face
And that's not why I've come

(let 'Am' ring >>>fade)
Out-tro:
I'll never know


Am E
variations - click chord images
Transpose chords:
Tuning:
Cool service:
View: Size:
A  A  A
Rating:
Layout:
  • Currently 4.3/5 Stars.
  • 1
  • 2
  • 3
  • 4
  • 5
 
Accuracy:
  • Currently 3.2/5 Stars.
  • 1
  • 2
  • 3
  • 4
  • 5
 
click stars to rate
Chordie recommends:
Check out JamPlay.com for online video guitar lessons
Songbook:
Login to add this song to your songbook
Support the artist
Preview/buy this song
MSN Music
Why this non-profit ad?

 
login to add comments/video/corrections