Guitar Tabs, Chords and Lyrics


Ultrasuede  Matthew Sweet



       [G]                                             [A]          [G]      [A]           [C]                                 
6-----------------3--------------3------------------5---------3--/---5----------------------------------|
5-----------------3--------------3------------------5---------3--/---5-----------5----------------------|
4-----------------4--------------4------------------6---------4--/---6-----x----5-----------------------|
3--------x--x---5------x--x---5------x--x--x---7----x---5--/---7-----x----5-----------------------------|
2--------x--x---5------x--x---5------x--x--x---7----x---5--/---7-----x----3-----------------------------|
1--------x--x---3------x--x---3------x--x--x---5----x---3--/---5-----3----------------------------------|

N.C.
6-------------------------------------------------------------------------|
5-------------------------------------------------------------------------|
4----------------------------------------------------------5---4----------|
3-------------------------------------------------------------------5-----|
2----2-/-3---5---3h5p3-\-2-/-3--5-----------------------------------------|
1-------------------------------------------3-----------------------------|


Verse- Riff 1 twice
[G]Ultrasuede   heaven [A]made   [G]   [A]
C N.C.
Honey never tasted so sweet
[G]Ultrasuede   finest [A]grade  [G]   [A]
C N.C.
From my head up to your feet
A xx A xx G / A x G / A E (G / A indicates slide, not the chord G/A)
I'm alive
[C]You've [B]got [C]me runn[D#]ing around in your  [E#]

Chorus
[G]Ultrasuede       [C]
Ultrasue[A]de  I'll give anyth[C]ing you desire
[G]If I get my way  [A]    [G]    [A]
C G N.C.
I'm leaving it up to you

Here's that little N.C. at the end of the chorus
6-------------------------|
5-------------------------|
4------5---4--------------|
3---------------5---------|
2-------------------------|
1-------------------------|


Verse

Ultrasuede heaven made
Hot enough to burn your lips on
Ultrasuede sweetly played
soft enough to sink my teeth and you'l
see
I don't care where you've been

Chorus

Ultrasuede
Ultrasuede I'll give you anything you desire
If I have my way
I'm leaving it up to you

Bridge
[C]You take me high, and you don't know why
People show you what to do            [G]
Done thir[C]ty days in a million ways
I am still in love with you     [G]

Aww, let me show you

Interlude
Play Riff 1 twice

Verse
Ultrasuede heaven made
Honey never tasted so sweet
Ultrasuede finest grade
From my head up to your feet
I'm alive
But you've got me running around in your

Chorus
Ultrasuede
Ultrasuede I'll give you anything you desire
If I get my way
I'm leaving it up to you

Ultrasuede
Ultrasuede I'll give you anything you desire
If I get my way
I'm leaving it up to you

Ultrasuede
Ultrasuede
I'm leaving it up to you

Ultrasuede
Ultrasuede
I'm leaving it up to you

Ultrasuede
Ultrasuede
I'm leaving it up to you

Ultrasuede

Important: The song above is NOT stored on the Chordie server. The original song is hosted at www.guitaretab.com. Chordie works as a search engine and provides on-the-fly formatting. Chordie does not index songs against artists'/composers' will. To remove this song please click here.

Text color:
Chord color:
Chord grids: 
Font size:    
Page size: 

A B C D# G
variations - click chord images

Login - add to songbook

Transpose chords

Tuning

Rating click stars to rate

Layout
Accuracy

SHARE PAGE  




You need to log in to post comments