Guitar Tabs, Chords and Lyrics


Awakening Acoustic   Switchfoot



There is a studio version of this out there I believe. My friend heard it
on satellite radio. There's also a video on Youtube.
http://www.youtube.com/watch?v=nMRtcH-D2OI 

Intro: (r= 11th fret)(f= 14th fret)
e--------------------------------------------------------------------->
B--------------------------------------------------------------------->
G--------------------------------------------------------------------->
D------------------222444/999666464------------------222444/999666464->
A-777999/fffrrr9r9-000000-000000000-777999/fffrrr9r9-000000-000000000->
E-000000-000000000------------------000000-000000000------------------>
  slight pm**********************************************************

                                                                   
Verse 1: X4
e-----------------------------------------------------------------> 
B-----------------------------------------------------------------> 
G-999999999999999-----------------999999999999999----------------->
D-999999999999999-999999999999999-999999999999999-999999999999999->
A-777777777777777-999999999999999-xxxxxxxxxxxxxxx-777777777777777->
E-000000000000000-777777777777777-999999999999999-555555555555555->
  slight pm******************************************************
Face down with the LA curbside endings/with the ones and zeros. Downtown
was the perfect place to hide. The first star that I saw last night was a
headlight/of a man-made sky, but/man-made never made our dreams collide,
Collide.

Chorus: X3
e----------------------------------------------------------------->
B----------------------------------------------------------------->
G-999999999999999-888888888888888-999999999999999-666666666666666->
D-999999999999999-999999999999999-999999999999999-777777777777777->
A-777777777777777-999999999999999-xxxxxxxxxxxxxxx-777777777777777->
E-000000000000000-777777777777777-999999999999999-555555555555555->

Here we are now with the falling sky and the rain, We're awakening/Here we
are now with our desperate youth and the pain, We're awakening/Maybe it's
called ambition, you've been talking in your sleep/about a

Fill: 
e---------------------------------------------------->
B---------------------------------------------------->
G-999999999999999------------------------------------>
D-999999999999999-------------------222444/999666464->
A-xxxxxxxxxxxxxxx--777999/fffrrr9r9-000000-000000000->
E-999999999999999--000000-000000000------------------>
  slight pm*****************************************
Dream, we're awakening

Verse 2: X4
e-----------------------------------------------------------------> 
B-----------------------------------------------------------------> 
G-999999999999999-----------------999999999999999----------------->
D-999999999999999-999999999999999-999999999999999-999999999999999->
A-777777777777777-999999999999999-xxxxxxxxxxxxxxx-777777777777777->
E-000000000000000-777777777777777-999999999999999-555555555555555->
  slight pm******************************************************
Last week found me living for nothing but deadlines, With my dead beat sky
but, this town doesn't look the same tonight These dreams started singing
to me out of nowhere/And in all my life I don't know if I've ever felt so
alive, Alive

---REPEAT CHORUS

Fill:
e------------------------------------------------------------------->
B------------------------------------------------------------------->
G-999999999999999-999--999999---777--777777---666--6666666666------->
D-999999999999999-999--999999---777--777777---777--7777777777------->
A-xxxxxxxxxxxxxxx-777--777777---555--555555---777--7777777777------->
E-999999999999999-000--000000-----------------555--5555555555------->

Dream, we're awakening

Bridge:
e------------------------------------------------------------------->
B------------------------------------------------------------------->
G------------------------------------------------------------------->
D-999999999999999--------------------------------------------------->
A-xxxxxxxxxxxxxxx-77777777777777-999999999999999-77777777/rrrrrrrr-->
E-999999999999999-55555555555555-777777777777777-55555555/88888888-->
  **************************************************************
I want to wake up kicking and screaming/I want to wake up kicking and
screaming/I want a heart that I know is beating, It's beating, I'm bleeding

e--------------------------------------------------------------------->
B--------------------------------------------------------------------->
G--------------------------------------------------------------------->
D--------------------------------------------------------------------->
A-rrrrrrrrrrrrrr-77777777777777-999999999999999-777777777777777777777->
E-99999999999999-55555555555555-777777777777777-555555555555555555555-> 
  ************************************************(gradual pm release)
I want to wake up kicking and screaming/I want to live like I know what I'm
leaving/I want a heart that I know is beating, It's beating… it’s beating… 
it’s beating…

e------------->
B------------->
G------------->
D-xxxxxxxxxx-->
A-xxxxxxxxxx-->
E-xxxxxxxxxx--> 

I'm bleeding

---REPEAT CHORUS

Fill:
e------------------------------------->
B------------------------------------->
G------------------------------------->
D-rrrrrrrr-77777777-rrrrrrrr-77777777->
A-rrrrrrrr-77777777-rrrrrrrr-77777777->
E-99999999-55555555-99999999-55555555-> 
  slight pm**************************
Dream, we're awakening… dream, we’re awakening.

Outro: 
e--------------------------------------------------------------------------0>
B-------------------------------------------------------------------------0->
G------------------------------------------------------------------------1-->
D------------------222444/999666464------------------222444/999666464---2--->
A-777999/fffrrr9r9-000000-000000000-777999/fffrrr9r9-000000-000000000--2---->
E-000000-000000000------------------000000-000000000------------------0----->
  slight pm*****************************************(grad. pm release)

You can reverse the direction when you arpeggiate the E chord if you want. 
Jon has done it both ways. 

Any corrections can be e-mailed to me at brian.lew@hotmail.com



Important: The song above is NOT stored on the Chordie server. The original song is hosted at www.guitaretab.com. Chordie works as a search engine and provides on-the-fly formatting. Chordie does not index songs against artists'/composers' will. To remove this song please click here.

This song is displayed as text-only. Transposing and tuning is only available for chordpro-songs.

Login - add to songbook

Rating click stars to rate

Layout
Accuracy

SHARE PAGE  




You need to log in to post comments