Chordie logo

Edge Of My Seat   Switchfoot




    Artist:switchfoot
    Album:The Legend of Chin
  The first version of this song was a little incorrect and hard to understand,if you
know what power chords are.This version also has the small solo in it.Tune to Drop D so
easier.
    Intro(Piano and Jon)
   Nothing more/That there's nothing more/Nothing more/That there's nothing more.
    e|---------------------------------|
    G|---------------------------------|(2x)
    B|---------------------------------|
    D|-7-10-7-9/10-9-7-5-7-10-7-9/10-9-|
    A|-5-8--5-7/8--7-5-3-5-8--5-7/8--7-|
    D|---------------------------------|
      Verse 1
    e|---------------------------------------------|
    G|---------------------------------------------|(2x)
    B|---------------------------------------------|
    D|-22-55-777-5-22-55-777-5-22-55-777-5-22-55-7-|
    A|-22-55-777-5-22-55-777-5-22-55-777-5-22-55-7-|
    D|-22-55-777-5-22-55-777-5-22-55-777-5-22-55-7-|
     Nothing here's the same it's all a dream/Life on the movie screen/And I'm sittin'
the edge of my seat/I can't tell what happens next just what  I've seen/I don't know what
means/And I'm sittin' on the edge of my seat
      Chorus 1
    e|--------------------------|
    G|--------2--2--------22----|
    B|--2--2-4--4---2--2-4---44-|
    D|-4--4--------4--4------44-|
    A|-----------------------22-|
    D|--------------------------|
     I can't forget your name/Forget your name/Ya I can't forget you/No I know I can't 
you girl
      Verse 2(Same as verse 1 with these words)
     I promise sit back buckle in and hold on tight/A roller coaster ride/And I'm
on the edge of my seat/And I can't know for sure/'Cause I'm just laying in your 
I
you got nothing but another thing coming if you think there's nothing more
      Pre-Chorus
    e|-----------------|
    G|-----------------|
    B|-2-3-0-2-3-5-7-0~|
    D|-----------------|
    A|-----------------|
    D|-----------------|
      Nothing more/That there's nothing more
      Chorus 2(Same lyrics as first chorus)
    e|---------------------------------------------------|
    G|---------------------------------------------------|
    B|-777777777777777-----------777777777777777---------|
    D|-777777777777777-5-7-55-77-777777777777777-5-77-55-|
    A|-555555555555555-5-7-55-77-555555555555555-5-77-55-|
    D|-----------------5-7-55-77-----------------5-77-55-|
      Intro
      Solo
    e|--------------------------|
    G|--------------------------|
    B|-7~7~7/10/7-7/12/7-7/10/7-|
    D|--------------------------|
    A|--------------------------|
    D|--------------------------|

    e|------------------------------------------------------------------------|
    G|------------------------------------------------------------------------|
    B|------------------------------------------------------------------------|
    D|---11-12--10h12p10--11-12--10h12p10--11-12--10h12p10--11-12/16bbbb16-12-|
    A|--9------8---------9------8---------9------8---------9------------------|
    D|-9------8---------9------8---------9------8---------9-------------------|

    e|----------------------------------------------------------------|
    G|-----------------------------------------10-xx-10-xx-10-xx-1010-|
    B|-----------------------------------------9--xx--9-xx--9-xx--9-9-|
    D|-9/5/999-7-9-9/5/999-7-9-9/5/999-7-9-9/5-7--xx7-7-x---7-xx--7-7-|

    A|----------------------------------------------------------------|
    D|----------------------------------------------------------------|
      Chorus 2(2x)
      Intro
      End
     That's it.Enjoy.God bless.


Important: The song above is NOT stored on the Chordie server. The original song is hosted at www.guitaretab.com. Chordie works as a search engine and provides on-the-fly formatting. Chordie does not index songs against artists/composers will. To remove this song please click here.

This song is displayed as text-only. Transposing and tuning is only available for chordpro-songs.

Login - add to songbook

Rating click stars to rate

Layout
Accuracy

SHARE PAGE  

You need to log in to post comments