Guitar Tabs, Chords and Lyrics


La Isla Bonita   System Of A Down



D|-----------------------------------------------------------|
A|-----------------------------------------------------------|
F|-----------------------9-------------------------7---------|
C|----------7---------9-----9-0-------5---------7-----7-0----|
G|-------7-----7-0-7---------------5-----5-0-5---------------|
C|----7-------------------------5----------------------------|

D|-----------------------------------------------------------|
A|-----------------------------------------------------------|
F|----------5------------------------------------------------|
C|-------5-----5-0-------2------------5------------3---------|
G|----3---------------2-----2-0----5-----5-0----3-----3-0----|


Important: The song above is NOT stored on the Chordie server. The original song is hosted at www.guitaretab.com. Chordie works as a search engine and provides on-the-fly formatting. Chordie does not index songs against artists'/composers' will. To remove this song please click here.

This song is displayed as text-only. Transposing and tuning is only available for chordpro-songs.

Login - add to songbook

Rating click stars to rate

Layout
Accuracy

SHARE PAGE  




You need to log in to post comments