""; ?> by Unknown - guitar chords, guitar tabs and lyrics - chordie
 C-G-C-F-A-D
               Author/Artist: System Of A Down
Album: Steal this Album
Transcribed by: Benjamin Marschner
Email: Leerebirne@web.de
HP: www.systemofadowntabs.de.vu (if you want the other tabs from ALL Albums)
 A
 pm......................................................................
1:-----------------|-----------------|-----------------|-----------------|
2:-----------------|-----------------|-----------------|-----------------|
3:-----------------|-----------------|-----------------|-----------------|
4:---------7-------|---------7-------|---------6-------|---------6-------|
5:-5-7-8-7---8-7-8-|-5-7-8-7---8-7-8-|-4-6-7-6---7-6-7-|-4-6-7-6---7-6-7-|
6:-----------------|-----------------|-----------------|-----------------|

pm....................................................................................
1:------------------------|------------------------|-----------------|-----------------|
2:------------------------|------------------------|-----------------|-----------------|
3:------------------------|------------------------|-----------------|-----------------|
4:------------10----------|------------10----------|---------8-------|---------8-------|
5:-8-10-11-10----11-10-11-|-8-10-11-10----11-10-11-|-6-8-9-8---9-8-9-|-6-8-9-8---9-8-9-|
6:------------------------|------------------------|-----------------|-----------------|

pm . . . . . . . . . . . . . . . .
1:-----------|---------|-----------|---------|-----------|---------|-----------|---------|
2:-10---10---|-9---9---|-10---10---|-9---9---|-10---10---|-9---9---|-10---10---|-9---9---|
3:----7----7-|---7---7-|----7----7-|---7---7-|----7----7-|---7---7-|----7----7-|---7---7-|
4:-----------|---------|-----------|---------|-----------|---------|-----------|---------|
5:-----------|---------|-----------|---------|-----------|---------|-----------|---------|
6:-----------|---------|-----------|---------|-----------|---------|-----------|---------|
1:----------7-8--------|---------7-8--------|---------7-8--------|---------7-8------|
2:--10-9-10------------|-10-9-10------------|-10-9-10------------|-10-9-10----------|
3:--------------10-9-7-|-------------10-9-7-|-------------10-9-7-|-------------10-9-|
4:---------------------|--------------------|--------------------|------------------|
5:---------------------|--------------------|--------------------|------------------|
6:---------------------|--------------------|--------------------|------------------|

 B
1:---------------|-----------------------------------------------|---------------|
2:---------------|-----------------------------------------------|---------------|
3:---------------|-----------------------------------------------|---------------|
4:-0---0---0---0-|-8--8--7--7--8--8--7--7--8--8--7--7--8--8--7/--|-0---0---0---0-|
5:-0---0---0---0-|-6--6--5--5--6--6--5--5--6--6--5--5--6--6--5/--|-0---0---0---0-|
6:-0---0---0---0-|-----------------------------------------------|-0---0---0---0-|

 C
 pm....................
1:---------------------|
2:---------------------|
3:---------------------|
4:-0--0--0--0--0--0--0-|
5:-0--0--0--0--0--0--0-|
6:-0--0--0--0--0--0--0-|

 D
1:--------------------------------------------|
2:--------------------------------------------|
3:------9---8----9--11--12--------------------|
4:-0----7---6----7--9---10----3---2--2-2-2--2-|
5:-0----7---6----7--9---10----3---2--2-2-2--2-|
6:-0----7---6----7--9---10----3---2--2-2-2--2-|
1:-------------------------------------------|
2:-------------------------------------------|
3:------9---8----9--11--12-------------------|
4:-0----7---6----7--9---10----3---2--2--2--2-|
5:-0----7---6----7--9---10----3---2--2--2--2-|
6:-0----7---6----7--9---10----3---2--2--2--2-|

 E
 pm.......................
1:------------------------|---------------------|
2:------------------------|---------------------|
3:------------------------|---------------------|
4:-0--0--0--0--0--0--0--0-|-1--1--0--0--1--1--0-|
5:-0--0--0--0--0--0--0--0-|-1--1--0--0--1--1--0-|
6:-0--0--0--0--0--0--0--0-|-1--1--0--0--1--1--0-|

ORDER:
=====
Bass-Intro
 ABABCDBE

















A B C D E
variations - click chord images
Transpose chords:
Tuning:
Cool service:
View: Size:
A  A  A
Rating:
Layout:
  • Currently 3.1/5 Stars.
  • 1
  • 2
  • 3
  • 4
  • 5
 
Accuracy:
  • Currently 2.4/5 Stars.
  • 1
  • 2
  • 3
  • 4
  • 5
 
click stars to rate
Chordie recommends:
Check out JamPlay.com for online video guitar lessons
Songbook:
Login to add this song to your songbook
Support the artist
Preview/buy this song
MSN Music
Why this non-profit ad?

 
login to add comments/video/corrections