C-G-C-F-A-D
               Author/Artist: System Of A Down
Album: Steal this Album
Transcribed by: Benjamin Marschner
Email: Leerebirne@web.de
HP: www.systemofadowntabs.de.vu (if you want the other tabs from ALL Albums)
A(all artificial harmonics in middle position)
1:------------------10-8-|-----------------10-8-|-------------------10-8-|-------------10-8-8-10|
2:------------10-8-------|-----------10-8-------|-------------10-8-------|----------------------|
3:------10-8-------------|-10--10-8-------------|-------10-8-------------|-------10-8-----------|
4:10-8-------------------|----------------------|-10-8-------------------|-10-8-----------------|
5:-----------------------|----------------------|------------------------|----------------------|
6:-----------------------|----------------------|------------------------|----------------------|

 B
1:---------------------------------|
2:---------------------------------|
3:---------------------------------|
4:-0-2-3-2-0-2-3-2-0-2-3-2-0-2-3-2-|
5:-0-2-3-2-0-2-3-2-0-2-3-2-0-2-3-2-|
6:-0-2-3-2-0-2-3-2-0-2-3-2-0-2-3-2-|

B'
pm................................
1:---------------------------------|
2:---------------------------------|
3:---------------------------------|
4:-0-2-3-2-0-2-3-2-0-2-3-2-0-2-3-2-|
5:-0-2-3-2-0-2-3-2-0-2-3-2-0-2-3-2-|
6:-0-2-3-2-0-2-3-2-0-2-3-2-0-2-3-2-|

 C
1:----------------------------------10-8-10-8-|
2:-----------------------10-8-10-8------------|
3:------------10-8-10-8-----------------------|
4:-10-8-10-8----------------------------------|
5:--------------------------------------------|
6:--------------------------------------------|

D(artificial harmonic in the middle from Bridge to middle)
3x: 1x: 3x: 1x:
1:----------------------------|-----------------|----------------------------|-----------------|
2:----------------------------|-----------------|----------------------------|-----------------|
3:----------------------------|-----------------|----------------------------|-----------------|
4:----------------------------|-----------------|----------------------------|-----------------|
5:-3-3-1--3-3-1--3-3-1--3-3-1-|-ah3-ah3-ah3-ah3-|-3-3-1--3-3-1--3-3-1--3-3-1-|-ah3-ah3-ah3-ah3-|
6:----------------------------|-----------------|----------------------------|-----------------|

4x: 4x:
1:--------------------|----------------------------|
2:--------------------|----------------------------|
3:--------------------|----------------------------|
4:--------------------|----------------------------|
5:-3-1--3-1--3-1--3-1-|-3-3-1--3-3-1--3-3-1--3-3-1-|
6:--------------------|----------------------------|

 E
1:---------------|--------------------|---------------|----------------------|
2:---------------|--------------------|---------------|----------------------|
3:---------------|--------------------|---------------|----------------------|
4:-0-2-3-0--8--8-|-0-2-3-0--10-8-10-8-|-0-2-3-0--8--8-|-10-8-10-8--10-8-10-8-|
5:-0-2-3-0--8--8-|-0-2-3-0--10-8-10-8-|-0-2-3-0--8--8-|-10-8-10-8--10-8-10-8-|
6:-0-2-3-0--8--8-|-0-2-3-0--10-8-10-8-|-0-2-3-0--8--8-|-10-8-10-8--10-8-10-8-|
1:---------------|--------------------|---------------|
2:---------------|--------------------|---------------|
3:---------------|--------------------|---------------|
4:-0-2-3-0--8--8-|-0-2-3-0--10-8-10-8-|-0-2-3-0--8--8-|
5:-0-2-3-0--8--8-|-0-2-3-0--10-8-10-8-|-0-2-3-0--8--8-|
6:-0-2-3-0--8--8-|-0-2-3-0--10-8-10-8-|-0-2-3-0--8--8-|

 F
1:----------------------------10-10-8-|
2:-------------------10-10-8----------|
3:----------10-10-8-------------------|
4:-10-10-8----------------------------|
5:------------------------------------|
6:------------------------------------|

 G
1:----------------------------|----------------------|----------------------|
2:----------------------------|----------------------|------------10-8-10-8-|
3:----------------------------|------------10-8-10-8-|----------------------|
4:-10-8-10-8--10-10-8-10-10-8-|-10-8-10-8------------|-10-8-10-8------------|
5:-10-8-10-8------------------|-10-8-10-8------------|-10-8-10-8------------|
6:-10-8-10-8------------------|-10-8-10-8------------|-10-8-10-8------------|
1:------------10-8-10-8-|----------------------------|----------------------------|
2:----------------------|----------------------------|----------------------------|
3:----------------------|----------------------------|------------10-10-8-10-10-8-|
4:-10-8-10-8------------|-10-8-10-8--10-10-8-10-10-8-|-10-8-10-8------------------|
5:-10-8-10-8------------|-10-8-10-8------------------|-10-8-10-8------------------|
6:-10-8-10-8------------|-10-8-10-8------------------|-10-8-10-8------------------|
1:----------------------|----------------------------|----------------------|
2:----------------------|----------------------------|------------10-8-10-8-|
3:----------------------|------------10-10-8-10-10-8-|----------------------|
4:-10-8-10-8--10-8-10-8-|-10-8-10-8------------------|-10-8-10-8------------|
5:-10-8-10-8------------|-10-8-10-8------------------|-10-8-10-8------------|
6:-10-8-10-8------------|-10-8-10-8------------------|-10-8-10-8------------|
1:------------10-10-8-10-10-8-|----------------------------|----------------------|
2:----------------------------|----------------------------|----------------------|
3:----------------------------|----------------------------|------------10-8-10-8-|
4:-10-8-10-8------------------|-10-8-10-8--10-10-8-10-10-8-|-10-8-10-8------------|
5:-10-8-10-8------------------|-10-8-10-8------------------|-10-8-10-8------------|
6:-10-8-10-8------------------|-10-8-10-8------------------|-10-8-10-8------------|
1:----------------------------|------------10-8-10-8-|
2:------------10-10-8-10-10-8-|----------------------|
3:----------------------------|----------------------|
4:-10-8-10-8------------------|-10-8-10-8------------|
5:-10-8-10-8------------------|-10-8-10-8------------|
6:-10-8-10-8------------------|-10-8-10-8------------|

 B
   3x:                          1x:(artificial harmonic in the middle from Bridge to middle)
1:----------------------------|-----------------|
2:----------------------------|-----------------|
3:----------------------------|-----------------|
4:----------------------------|-----------------|
5:-3-3-1--3-3-1--3-3-1--3-3-1-|-ah3-ah3-ah3-ah3-|
6:----------------------------|-----------------|

ORDER:
=====
 A
 B 2x
B'2x
 CDE
     B 2x
F 2x
 DE
   B 2x
F 2x
 GB
   B 4x




A B C D E F G
variations - click chord images
Transpose chords:
Tuning:
Cool service:
View: Size:
A  A  A
Rating:
Layout:
  • Currently 2.4/5 Stars.
  • 1
  • 2
  • 3
  • 4
  • 5
 
Accuracy:
  • Currently 2/5 Stars.
  • 1
  • 2
  • 3
  • 4
  • 5
 
click stars to rate
Chordie recommends:
Check out JamPlay.com for online video guitar lessons
Songbook:
Login to add this song to your songbook
Support the artist
Preview/buy this song
MSN Music
Why this non-profit ad?

 
login to add comments/video/corrections