Chordie logo


Spiders   System Of A Down



Tuning: C G C F A D

Intro/verse 1

|------------------|------------------|----------------|------------------|
|------------------|------------------|----------------|------------------|
|------------------|------------------|----------------|------------------|
|------------------|------------------|----------------|------------------|
|-7--7--5--5--5----|-7--7--5--5--5----|8--7--10--8--7h8|-7--7--5--5--5----|
|0--0--0--0--0--0-0|0--0--0--0--0--0-0|--0--0---0--0---|0--0--0--0--0--0-0|
Chorus with Distortion

|-----------------------|-----------------------|
|-----------------------|-----------------------|
|-----------------------|-----------------------|
|10-10-10-10-10-10-10-10|10-10-10-10-10-10-10-10|
|10-10-10-10-10-10-10-10|10-10-10-10-10-10-10-10|
|10-10-10-10-10-10-10-10|10-10-10-10-10-10-10-10|

|-----------------------|----------------------|
|-----------------------|----------------------|
|-14--12--15--14--12/14-|-12--12/14--10--10-10-|
|-----------------------|----------------------|
|-12--10--13--10--10/12-|-10--10/12--8---8--8--|
|0--0---0---0---0-------|0--0-------0--0--0----|

|-----------------------|----------------|
|-----------------------|----------------|
|-----------------------|----------------|
|10-10-10-10-10-10-10-10|8-8-8-8-7-7-7-7-|
|10-10-10-10-10-10-10-10|8-8-8-8-7-7-7-7-|
|10-10-10-10-10-10-10-10|8-8-8-8-7-7-7-7-|
Verse 2

|----------------|----------------|--------------------|----------------|
|----------------|----------------|--------------------|----------------|
|-9--9--7--7--7-7|-9--9--7--7--7-7|-10--9--12--10--9/10|-9--9--7--7--7-7|
|----------------|----------------|--------------------|----------------|
|-7--7--5--5--5-5|-7--7--5--5--5-5|-8---7--10--8---7/8-|-7--7--5--5--5-5|
|0--0--0--0--0---|0--0--0--0--0---|0--0--0---0---0-----|0--0--0--0--0---| 2x
Solo

|-----------|                  |-----------|
|-----------|                  |-----------|
|-14--15--18|                  |-19--20--18|
|-----------| 2x with 32 notes |-----------| 2x with 16 notes
|-12--13--16|                  |-17--18--16|
|-0---0---0-|                  |-0---0---0-|
Outro

|----------------|    
|----------------|    
|-9--9--7--7--7-7|    
|----------------| 4x and then
|-7--7--5--5--5-5|    
|0--0--0--0--0---|    

|--------------------|----------------|----------------------|--------------|
|--------------------|----------------|----------------------|--------------|
|-10--9--12--10--9/10|-9--9--7--7--7-7|-14--12--15--14--12/14|-12--12/14--10|
|--------------------|----------------|----------------------|--------------|
|-8---7--10--8---7/9-|-7--7--5--5--5-5|-12--10--13--12--10/12|-10--10/12--8-|
|0--0--0---0---0-----|0--0--0--0--0---|0--0---0---0----0-----|0--0--------0-|
Intro - verse 1 - chorus - verse 2 - chorus - solo - chorus 2x - outro.

That's it. 


Important: The song above is NOT stored on the Chordie server. The original song is hosted at www.guitaretab.com. Chordie works as a search engine and provides on-the-fly formatting. Chordie does not index songs against artists/composers will. To remove this song please click here.

This song is displayed as text-only. Transposing and tuning is only available for chordpro-songs.

Login - add to songbook

Rating click stars to rate

Layout
Accuracy

SHARE PAGE  




You need to log in to post comments