Guitar Tabs, Chords and Lyrics


Hot Love   T Rex



A great t rex hit


:--------2--2-------------| the main riff
B:-------0--0-------------| up and down strokes
G:-------0--0-------------|
D:-0--0--0--0--0--0-------| repeat 9x              d= down
A:-2--2--3--3--2--2-------|                        u- up
E:-3--3--3--3--3--3-------|
   d  u  d  u  d  u

   c           a           d                          
:--0--0--0--0--0--0--0--0--2--2--2--2---   just play down strokes
B:-1--1--1--1--2--2--2--2--3--3--3--3---
G:-0--0--0--0--2--2--2--2--2--2--2--2---    play once then go back to main
D:-2--2--2--2--2--2--2--2--0--0--0--0---    riff
A:-3--3--3--3--0--0--0--0--0--0--0--0---
E:-0--0--0--0--0--0--0--0--0--0--0--0---



solo its only a short one but very easy
|-----------------------------------------|
|-----------------------------------------|
|121212121212121212s5---1212121212121212s5|
|-----------------------------------------|
|-----------------------------------------|
|-----------------------------------------|

|-------------------------------------------------------|
|--------------------------10----12----12b--12---10--15b|
|-121212121212121212--12--------------------------------|
|-------------------------------------------------------|
|-------------------------------------------------------|
|-------------------------------------------------------|

|-------------------------------------------------------|
|------12b---10----------15---12---10--------12b---10---| mute the 10s 
|-12v--------------7v-------------------12v-------------|straight after 
|-------------------------------------------------------|you pick it
|-------------------------------------------------------|
|-------------------------------------------------------|
hope you like its my first propa tab 


Important: The song above is NOT stored on the Chordie server. The original song is hosted at www.guitaretab.com. Chordie works as a search engine and provides on-the-fly formatting. Chordie does not index songs against artists/composers will. To remove this song please click here.

This song is displayed as text-only. Transposing and tuning is only available for chordpro-songs.

Login - add to songbook

Rating click stars to rate

Layout
Accuracy

SHARE PAGE  




You need to log in to post comments