Hibernation

Tad

 EFG
e---------------------|---------------------|
B---------------------|---------------------|
G---------------------|---------------------|
D---------------------|------------------5b-|
A---------------------|---------------------|
E--0-0-0-1-0-1-0-0-1b-|-0-0-0-1-0-1-0-0-----|


 EFAC
e---------------------|---------------------|
B---------------------|------------------1b-|
G------------------2b-|---------------------|
D---------------------|---------------------|
A---------------------|---------------------|
E--0-0-0-1-0-1-0-0----|-0-0-0-1-0-1-0-0-----|


VERSE
e---------------------|---------------------|
B---------------------|---------------------|
G---------------------|---------------------|
D---------------------|---------------------|
A---------------------|---------------------|
E--0-0-0-1-0-1-0-0-1b-|-0-0-0-1-0-1-0-0-1b--|

Play as many times as needed.

CHORUS:
 C#G#F#
e-------------------------------|
B-------------------------------|
G-----------13--13----13-11-13--|
D--11-11-11---11---11-----------|
A-------------------------------|
E-------------------------------|
e-------------------------------|
B-------------------------------|
G-----------13--13----13-11~~---|
D--11-11-11---11---11-----------|
A-------------------------------|
E-------------------------------|
e-------------------------------|
B-------------------------------|
G-----------13--13----13-11-13--|
D--11-11-11---11---11-----------|
A-------------------------------|
E-------------------------------|
e-------------------------------|
B-------------------------------|
G-----------13--13----13-11~~---|
D--11-11-11---11---11-----------|
A-------------------------------|
E-------------------------------|


C? C? D
e------------------0---0--0-0-0-0--0--0-0—0-0-|
B------------------3---3--3-3-3-3--3--3-3-3-3-|
G--1~-------1~-----2---2--2-2-2-2--2--2-2-2-2-|
D--0~-------0~-----0---0--0-0-0-0--0--0-0-0-0-|
A--3~-------3~--------------------------------|
E---------------------------------------------|

Not 100% on the weird C chord.

 A#B
e---------------------|---------------------|
B---------------------|---------------------|
G------------------3b-|-----------------4b--|
D---------------------|---------------------|
A---------------------|---------------------|
E--0-0-0-1-0-1-0-0----|-0-0-0-1-0-1-0-0-----|


 CE
e---------------------|---------------------|
B---------------------|-----------------5b--|
G------------------5b-|---------------------|
D---------------------|---------------------|
A---------------------|---------------------|
E--0-0-0-1-0-1-0-0----|-0-0-0-1-0-1-0-0-----|


Added Guitar on the fourth time:
e---------------------|--------0------------|
B---------------------|--------5b-----------|
G---------------------|---------------------|
D---------------------|---------------------|
A---------------------|---------------------|
E---------------------|---------------------|


Back to VERSE and CHORUS
e-------------------------------|
B-------------------------------|
G-----------13--13----13-11-13--|
D--11-11-11---11---11-----------|
A-------------------------------|
E-------------------------------|

Tad Doyle or Gary Thorstensen chose not to play the
above diagram the second time around but it is based
on it. I play something like this:
e------------------------------|
B------------------------------|
G--13--13-13-13-13-13-13-13-11-|
D--11--11-11-11-11-11-11-11-11-|
A------------------------------|
E------------------------------|

Play 4 times I think.

e------------------------|-----------------------|
B------------------------|-----------------------|
G------------------------|-----------------------|
D------------------------|-----------------------|
A--0--2--0--0-0-0-2-3-3--|--0--2--0--0-0-0-2-3-3-|
E------------------------|-----------------------|

“......carbon monoxide”
e------------------------|-----------------------|
B------------------------|-----------------------|
G------------------------|-----------------------|
D------------------------|-----------------------|
A--0--2--0--0-0-0-2-3-3--|--0--2--0--0-0-0-2-3-3-|
E------------------------|-----------------------|


Repeat parts to the song.

At the end play this:
 A#B
e---------------------|---------------------|
B---------------------|---------------------|
G------------------3b-|-----------------4b--|
D---------------------|---------------------|
A---------------------|---------------------|
E--0-0-0-1-0-1-0-0----|-0-0-0-1-0-1-0-0-----|


 CF
e---------------------|---------------------|
B---------------------|---------------------|
G------------------5b-|---------------------|
D---------------------|---------------------|
A---------------------|---------------------|
E--0-0-0-1-0-1-0-0----|-0-0-0-1-0-1-0-0-1b--|				



A A# B C C# E F F# G G#
variations - click chord images
Transpose chords:
Tuning:
Cool service:
View: Size:
A  A  A
Rating:
Layout:
  • Currently 3/5 Stars.
  • 1
  • 2
  • 3
  • 4
  • 5
 
Accuracy:
  • Currently 3/5 Stars.
  • 1
  • 2
  • 3
  • 4
  • 5
 
click stars to rate
Chordie recommends:
Check out JamPlay.com for online video guitar lessons
Songbook:
Login to add this song to your songbook
Support the artist
Preview/buy this song
MSN Music
Why this non-profit ad?

 
login to add comments/video/corrections