Guitar Tabs, Chords and Lyrics


Helot   Tad












Song:Helot
Artist:TAD
Album:God's Balls

Standard Tuning

Main Riff:
(Guitar 1 plays E5 for all notes in the same rythm)

e -|--------------------------|---------------------------|
b -|--------------------------|---------------------------|
g -|--------------------------|---------------------------|
d -|--------------------------|---------------------------|
a -|-7-7-7--7-7-7-7-----------|-8-8-8--8-8-8-8------------|
e -|-0-0-0--0-0-0-0-----------|-0-0-0--0-0-0-0------------|

e -|--------------------------|---------------------------|
b -|--------------------------|---------------------------|
g -|--------------------------|---------------------------|
d -|--------------------------|---------------------------|
a -|-9-9-9--9-9-9-9-----------|-10-10-10--10-10-10-10-----|
e -|-0-0-0--0-0-0-0-----------|-0---0--0---0--0--0--0-----|

Main Riff Cont.:

e -|--------------------------|---------------------------|
b -|--------------------------|---------------------------|
g -|--13-13-13-12-------------|----13-13-13---------------|
d -|--------------------------|--------------12-----------|
a -|--------------------------|---------------------------|
e -|--------------------------|---------------------------|

e -|--------------------------|---------------------------|
b -|-----------------13-12----|---------------------------|
g -|--13-13-13-12-------------|---------------------------|
d -|--------------------------|---------------------------|
a -|--------------------------|---------------------------|
e -|--------------------------|---------------------------|

Verse:

e -|--------------------------|---------------------------|
b -|--------------------------|---------------------------|
g -|--------------------------|---------------------------|
d -|--6-6-6-5-------6-6-6-5---|--6-6-6-5-0----------------|
a -|--------------------------|---------------------------|
e -|--------------------------|---------------------------|


e -|--------------------------|---------------------------|
b -|--------------------------|---------------------------|
g -|--13-13-13-12-------------|---13-13-13-12-------------|
d -|--------------------------|---------------------------|
a -|--------------------------|---------------------------|
e -|--------------------------|---------------------------|

e -|--------------------------|---------------------------|
b -|-----------------13-12----|---------------------------|
g -|--13-13-13-12-------------|---------------------------|
d -|--------------------------|---------------------------|
a -|--------------------------|---------------------------|
e -|--------------------------|---------------------------|

Followed by solo, more E5's and thats it.

Hopefully more coming soon. I hope this inspires other people to start
transcribing one of the best and most under-rated Seattle bands ever.



Important: The song above is NOT stored on the Chordie server. The original song is hosted at www.guitaretab.com. Chordie works as a search engine and provides on-the-fly formatting. Chordie does not index songs against artists/composers will. To remove this song please click here.

This song is displayed as text-only. Transposing and tuning is only available for chordpro-songs.

Login - add to songbook

Rating click stars to rate

Layout
Accuracy

Jango Player

SHARE PAGE  




You need to log in to post comments