Chordie logo

Better Days Will Come   Tahiti 80



----------------------------------------------------------------------------
			     BETTER DAYS WILL COME - Tahiti 80
----------------------------------------------------------------------------
Tabbed by: Jesse Benedick
Email: JBMetal311@Yahoo.com

Tuning: Standard

e|-0----0----0----0----|---------------------------|-5----7----8-----7-----|
B|-3----3----6----5----|---------------------------|-6----8----10----8-----|
G|-2----4----5----4----|-----14-12-----------------|-7----9----10----9-----|
D|-0----2----3----2----|--14-------14-------12-----|-7----7----10----7-----|
A|---------------------|--------------12-15----14--|-----------------------|
E|---------------------|---------------------------|-----------------------|
  Main Chords           Keyboard Notes              Guitar 2 Chords
e|--0--------0---------|--5--------------|
B|--5--------10--------|--6--------------|
G|--4--------9---------|--7--------------|
D|--5--------10--------|--7--------------|
A|--3--------8---------|--5--------------|
E|---------------------|-----------------|
  Chorus Chords         Breakdown Chord
e|----------------------------------------------------------------------|
B|----------------------------------------------------------------------|
G|---------------------------------------------------------------9p7----|
D|--7~-7~-7~-7-5~-5~-5~-7-5~---5-7-7-5~-9-5-7-5~--9p7p5~-10p7p5~-----5~-|
A|---------------------------7------------------------------------------|
E|----------------------------------------------------------------------|
  Solo
e|-----------------------------------------------------|
B|-----------------------------------------------------|
G|-----------------------9p7---------------------------|
D|-9p7p5~-9p7p5~-10p7p5~-----5~-9p7p5~----5-7-5---5~---|
A|--------------------------------------7-------7------|
E|-----------------------------------------------------|
  Solo continued...


| /  slide up
| \  slide down
| h  hammer-on
| p  pull-off
| ~  vibrato
| +  harmonic
| x  Mute note


Important: The song above is NOT stored on the Chordie server. The original song is hosted at www.guitaretab.com. Chordie works as a search engine and provides on-the-fly formatting. Chordie does not index songs against artists/composers will. To remove this song please click here.

This song is displayed as text-only. Transposing and tuning is only available for chordpro-songs.

Login - add to songbook

Rating click stars to rate

Layout
Accuracy

SHARE PAGE  

You need to log in to post comments