"yes"; ?> Spy by Tait - guitar chords, guitar tabs and lyrics - chordie

Spy

Tait

Spy---Tait-----------------------------------Transfered by Asa Gaston

e--x---x----x----x---
B--x---x----x----x---
G--1---x----2----2---
D--2---5----2----2---
A--2---5----0----1---
E--0---3----x----x---
 EG5A5Bb5

Riff 1-reverb and slight tremolo
e-------------------------------------
B-------------------------------------
G-------------------------------------
D-------------------------------------
A-------------------------------------
E-0--0-0-0-3----0-0-0-5----0-0-0-6v-


Riff 2-clean tone
e--------------------------------
B--------------------------------
G--------------------------------
D--------------------------------
A----1--0-------1---0----0------
E-0----------0---------3----3----


Riff 3-distortion
e-------------------------
B-------------------------
G------------------------
D------------------------
A--------1-1-0-0---------
E-0-0-0-----------3-0----


Riff 4-distortion
e-------------------------
B-------------------------
G-------------------------
D-------------------------
A---------------------0---
E--3-0-3-3-0-3-0-3-0-----


Intro: Riff 1 4x

Verse 1-Riff 2, 2x in background

I've watched you watching me but I can't see what you see
You ask me how I feel but you don't believe me still no!

Pre-chorus

 A5G5A5G5A5G5A5G5
           cause what I say        is here today        gone tomorrow

Chorus

 EG5A5G5A5EG5A5
        You treat me like a spy when I come around  just like a private eye
 Bb5A5EG5A5G5E
Roamin through your town   you treat me like a spy and I can't see why
 A5Bb5
 if only looks could kill

Riff 1 2x

Verse 2-Riff 2, 2x in background

You taunt me you doubt my faith then you shove it in my face
you tempt me but I wont bend you've wasted your time again yeah!

Pre-chorus
 A5G5A5G5A5G5
          And its a shame      will you ever change        you're so suspicious

Repeat chorus

Riff 3, 3x then Riff 4 2x

Repeat chorus 2x

Riff 1 4x then end with E


A5 Bb5 E G5
variations - click chord images
Transpose chords:
Tuning:
Cool service:
View: Size:
A  A  A
Rating:
Layout:
  • Currently 2/5 Stars.
  • 1
  • 2
  • 3
  • 4
  • 5
 
Accuracy:
  • Currently 4.3/5 Stars.
  • 1
  • 2
  • 3
  • 4
  • 5
 
click stars to rate
Chordie recommends:
Learn to play songs at Jamplay.com with video guitar lessons
Songbook:
Login to add this song to your songbook
Support the artist
Preview/buy this song
MSN Music
Why this non-profit ad?

 
login to add comments/video/corrections