Guitar Tabs, Chords and Lyrics


Queen Bee   Taj Mahal



hharpole@hotmail.com

hey guyus i just went to his concert a couple days ago and i figured out how to play 
song by ear.  if you can't do alternating thumb then this song is not for you.

rule - only use thumb on E,A,D strings - important

capo-3

start by forming a G chord

e-3--0---0-----------0-----------------|
b------3-----0---------3---0-----------|
g------------------------2-----0-------|  Play Twice
d----0-----0---2---2---2-----2---0---0-|
a--------------------------------------|
E-3----3-----0---0---0---0-----3---3---|

e-----------------------------0---------|
b---0-----0-----0---------0-------0-----|
g-0-----0-----0---------0-------------0-|  Play Twice
d-----2-----2-----0---0-----2-------2---|
a---3-----3---------------3-----3-------|
E---------------3---3-----------------3-|

e-----------------------------------------|
b---------------0-----------------0-------|
g-----------0-----------------0-2---0-----|  Play Twice
d-0---2---0-------2---0---2---0-------2---|
a-----------------------------------------|
E---3---3-----3-----3---3---3-----3-----3-|

just repeat all of this over and over until versus of lyrics are over

Sweeter than a honey bee, yeah, baby been sweet on me
Sweeter than a honey bee, yeah, my queen bee
Oh she rock to my soul, mama love me to my soul
Love me to my soul, oh she rock me to my soul
She's a
strutter
, she can shake it some yeah, oh watch her now look at her run
A strutter, she can shake it some, oh dancing having fun
She love me to my soul, oh she love me to my soul
Oh love me to my soul oh rock me to my soul
Honey in the honey pot and, your pot is hot
Honey in the honey pot and the pot is what you got
To lova rocka rocka me to my soul
Oh love me to my soul, rock me to my soul
Oh love me to my soul, rock me to my soul
Baby won't you come by me yeah, spare me this misery
Sugar won't you come by me, oh I know you'll agree, 'gree, 'gree, 'gree
To love me to my soul, oh to rock me to my soul
Ooh rock me to my soul, oh rock me to my soul
Sweeter than a honey bee oh, baby been sweet on me
Sweeter than a honey bee oh, my queen bee
Oh she rock me to my soul, oh rock me to my soul
Oh she rock me to my soul, oh rock me to my soul
These songs were made for lovers
Lovers and lovers and lovers and lovers and lovers
And lovers and lovers and lovers, And lovers and lovers
My soul, my soul
Queen bee


Important: The song above is NOT stored on the Chordie server. The original song is hosted at www.guitaretab.com. Chordie works as a search engine and provides on-the-fly formatting. Chordie does not index songs against artists/composers will. To remove this song please click here.

This song is displayed as text-only. Transposing and tuning is only available for chordpro-songs.

Login - add to songbook

Rating click stars to rate

Layout
Accuracy

SHARE PAGE  




You need to log in to post comments