eToCache5 = ""; ?> Handlake Village by Takida - guitar chords, guitar tabs and lyrics - chordie

Handlake Village

Takida

e------------------------------------|

B-----------2-0-------------2-0------|
G---3-3-3-3-----3---3-3-3-3-----3----|
D-4---------------4------------------|
A------------------------------------|
D------------------------------------|
e------------------------------------|
B-----------2-0-------------2-0------|
G---3-3-3-3-----3---3-3-3-3-----3----|
D-4---------------4------------------|
A------------------------------------|
D------------------------------------|Repeat until Chorus

 F#C#BD#5C#5
e--2-----4-----2------------------------|
B--2-----6-----4------------------------|
G--3-----6-----4-----8-----6------------|
D--4-----6-----4-----8-----6------------|
A--4-----4-----2-----6-----4------------|
D--2-----4-----2---- -------------------|


CHORUS

The store is not open, trees have fallen but you still giving light to me /
 F#C#BD#5C#5
The pride is not broken, is still lingers on the fight, the flight´s already
 F#C#BD#
won, you´ll see...
 C#5

Lyrics after the first chorus:

//Without any doubt// Nature´s splendor still there, the water runs with a hope of new
the children begins to laugh/ My mother taught me to cry, my family gave me a better
the soil bound us togeather // Looking at a photograph, the hans starts shaking, tears
falling so fast / I will not get over that, the mainstay has fallen, she passed away...

For comments contact me at jonis123@hotmail.com









B C# C#5 D# D#5 F#
variations - click chord images
Transpose chords:
Tuning:
Cool service:
View: Size:
A  A  A
Rating:
Layout:
  • Currently 0/5 Stars.
  • 1
  • 2
  • 3
  • 4
  • 5
 
Accuracy:
  • Currently 0/5 Stars.
  • 1
  • 2
  • 3
  • 4
  • 5
 
click stars to rate
Chordie recommends:
Learn to play this song & others via video guitar lessons at JamPlay.com
Songbook:
Login to add this song to your songbook
Support the artist
Preview/buy this song
MSN Music
Why this non-profit ad?

 
login to add comments/video/corrections