Guitar Tabs, Chords and Lyrics


Taking Back Sunday   Taking Back Sunday



Taking Back Sunday _-_- You're So Last Summer

  Intro

e|-------------------------------------------------------------------|
B|-------------------------------------------------------------------|
G|--6--6--6---7-7-7-7-7-7-7-7----------------------------------------|
D|--6--6--6---7-7-7-7-7-7-7-7----------------------------------------|
A|--4--4--4---5-5-5-5-5-5-5-5----------------------------------------|
E|-------------------------------------------------------------------|
  PM.........................

       Verse

e|-------------------------------------------------------------------|
B|-------------------------------------------------------------------|
G|--6--6--6---7-7-7-7-7-7-7-7------6--6--6---7-7-7-7-7-7-7-7---------|
D|--6--6--6---7-7-7-7-7-7-7-7------6--6--6---7-7-7-7-7-7-7-7---------|
A|--4--4--4---5-5-5-5-5-5-5-5------4--4--4---5-5-5-5-5-5-5-5---------|
E|-------------------------------------------------------------------|
  PM.........................

e|--------------------------------------|
B|--------------------------------------|
G|--------------------------------------|
D|---5-5-5-5-5-5-5-5---7-7-7-7-7-7-7-7--|
A|---5-5-5-5-5-5-5-5---7-7-7-7-7-7-7-7--|
E|---3-3-3-3-3-3-3-3---5-5-5-5-5-5-5-5--|
  PM.........................

       Chorus/Outro

e|-------------------------------------------------------------------|
B|-------------------------------------------------------------------|
G|--7-7-7-7-7-7-7-7--------------------------------------------------|
D|--7-7-7-7-7-7-7-7--7-7-7-7-7-7-7-7--9-9-9-9-9-9-9-9----------------|
A|--5-5-5-5-5-5-5-5--7-7-7-7-7-7-7-7--9-9-9-9-9-9-9-9----------------|
E|-------------------5-5-5-5-5-5-5-5--7-7-7-7-7-7-7-7----------------|

e|-------------------------------------------------------------------|
B|-------------------------------------------------------------------|
G|-------------------------------------------------------------------|
D|--5-5-5-5-5-5-5-5--------------------------------------------------|
A|--5-5-5-5-5-5-5-5--------------------------------------------------|
E|--3-3-3-3-3-3-3-3--------------------------------------------------|

     Little Fill Part In Verse
e|--------|
b|--10--7-|
g|--------|
d|--------|
a|--------|
e|--------|

     Bridge Part
e|--------------------------------------|
B|--------------------------------------|
G|--------------------------------------|
D|---5-5-5-5-5-5-5-5---7-7-7-7-7-7-7-7--|
A|---5-5-5-5-5-5-5-5---7-7-7-7-7-7-7-7--|
E|---3-3-3-3-3-3-3-3---5-5-5-5-5-5-5-5--|


Important: The song above is NOT stored on the Chordie server. The original song is hosted at www.guitaretab.com. Chordie works as a search engine and provides on-the-fly formatting. Chordie does not index songs against artists'/composers' will. To remove this song please click here.

This song is displayed as text-only. Transposing and tuning is only available for chordpro-songs.

Login - add to songbook

Rating click stars to rate

Layout
Accuracy

SHARE PAGE  




You need to log in to post comments