Chordie logo


Your Own Disaster   Taking Back Sunday



taking back sunday-your own disaster

guitar tuning:standard
EADGBe

tabbed by nathan mistickokat

accoustic guitars

intro(guitar I)
|-0--0-000-0-0--0-0-0-0--0-0-0--0-0-|
|-0--0-000-0-0--0-0-0-0--0-0-0--0-0-|
|-4--4-444-4-4--4-4-4-4--4-4-4--4-4-|
|-2--2-222-2-2--2-2-2-2--2-2-2--2-2-|(1x)
|-0--0-000-0-0--0-x-x-x--x-x-x--x-x-|
|-----------------4-4-4--4-4-4--4-4-|

verse(guitar I)
|-0--0-000-0-0--0-0-0-0--0-0-0--0-0-|
|-0--0-000-0-0--0-0-0-0--0-0-0--0-0-|
|-4--4-444-4-4--4-4-4-4--4-4-4--4-4-|
|-2--2-222-2-2--2-2-2-2--2-2-2--2-2-|(4x)
|-0--0-000-0-0--0-x-x-x--x-x-x--x-x-|
|-----------------4-4-4--4-4-4--4-4-|


chorus(strumming)
|-0-|-2-|-0-|
|-0-|-2-|-2-|
|-1-|-3-|-2-|
|-2-|-4-|-2-|(2x)
|-2-|-4-|-0-|
|-0-|-2-|---|

verse(4x)

chorus(4x)
this aint all the piano but i just got this part.
interlude(piano)guitar II
|-----------0~-----------11-12---12---12-----------------------------|
|-----------0~----------------12---12---12---9-10-9-12~--------------|
|8-9--8-9---9~-----------------------9-----12------9-----------------|
|---9-----9-9~-------------------------------------------------------|
|-----------7~-------------------------------------------------------|
|-----------0~-------------------------------------------------------|

guitar I
|-----------0-00-00-0-0-00-00--0-0-0-0-00-00-0-0-0-0-00-00-0-0-0-0-0-|
|-----------0-00-00-0-0-00-00--0-0-0-0-00-00-0-0-0-0-00-00-0-0-0-0-0-|
|-----------9-99-99-9-9-99-99--9-9-9-9-9x-xx-x-x-x-x-xx-xx-x-x-x-x-x-|
|-----------9-99-99-9-9-99-99--9-9-9-9-99-99-9-9-9-9-97-77-7-7-7-7-7-|(1x)
|-----------7-77-77-7-7-7x-xx--x-x-x-x-x9-99-9-9-9-9-97-77-7-7-7-7-7-|
|-----------0-00-00-0-0-09-99--9-9-9-9-97-77-7-7-7-7-75-55-5-5-5-5-5-|


(guitar I)
hey lush have fun,its the weekend
|-0-00-00-0-0-00-00--0-0-0-0-00-00-0-0-0-0-00-00-0-0-0-0-0-|
|-0-00-00-0-0-00-00--0-0-0-0-00-00-0-0-0-0-00-00-0-0-0-0-0-|
|-9-99-99-9-9-99-99--9-9-9-9-9x-xx-x-x-x-x-xx-xx-x-x-x-x-x-|
|-9-99-99-9-9-99-99--9-9-9-9-99-99-9-9-9-9-97-77-7-7-7-7-7-|(9x)
|-7-77-77-7-7-7x-xx--x-x-x-x-x9-99-9-9-9-9-97-77-7-7-7-7-7-|
|-0-00-00-0-0-09-99--9-9-9-9-97-77-7-7-7-7-75-55-5-5-5-5-5-|

(outro)just forget me its that simple
|-----------------------------|
|10---10--10--10---10--9~-----|
|9--9---9-9------9-----9~-----|
|9--------9------------9~-----|
|7--------7------------7~-----|
|-----------------------------|


this song rocks,especially this last part of the song.


Important: The song above is NOT stored on the Chordie server. The original song is hosted at www.guitaretab.com. Chordie works as a search engine and provides on-the-fly formatting. Chordie does not index songs against artists/composers will. To remove this song please click here.

This song is displayed as text-only. Transposing and tuning is only available for chordpro-songs.

Login - add to songbook

Rating click stars to rate

Layout
Accuracy

SHARE PAGE  




You need to log in to post comments