Guitar Tabs, Chords and Lyrics


Set Phasers To Stun   Taking Back Sunday



Intro:
Guitar 1
E|--------------------------------------------------------------------|
B|-5-5-5-5-5-5-5-5--4-4-4-4-4-4-4-4--5-5-5-5-5-5-5-5--4-4-4-4-4-4-4-4-|
G|-4-4-4-4-4-4-4-4--4-4-4-4-4-4-4-4--4-4-4-4-4-4-4-4--4-4-4-4-4-4-4-4-| 2X
D|--------------------------------------------------------------------|
A|--------------------------------------------------------------------|
e|--------------------------------------------------------------------|

Guitar 2 (enters 2nd time)
E|--------------------------------------------------------------------|
B|-----5---------------5----------------5----------------5------------|
G|-------4---------------4----------------4----------------4----------|
D|--------------------------------------------------------------------|
A|-44---------------00---------------44----------------00-------------|
e|--------------------------------------------------------------------|

Verse:
Guitar 1
E|--------------------------------------------------------------------|
B|-5-5-5-5-5-5-5-5--4-4-4-4-4-4-4-4--5-5-5-5-5-5-5-5--4-4-4-4-4-4-4-4-|
G|-4-4-4-4-4-4-4-4--4-4-4-4-4-4-4-4--4-4-4-4-4-4-4-4--4-4-4-4-4-4-4-4-| 2X
D|--------------------------------------------------------------------|
A|--------------------------------------------------------------------|
e|--------------------------------------------------------------------|

Guitar 2
E|-----------------|
B|---5454---45454--|
G|-------4-------4-| repeat
D|-----------------|
A|-----------------|
e|-----------------|
   pm*****  ******

Chorus:
Guitar 1
E|-------------------------------------|
B|-------------------------------------|
G|-22222222-44444444-66666666-99999999-|
D|-22222222-44444444-66666666-99999999-|
A|-00000000-22222222-44444444-77777777-|
e|-------------------------------------|

Guitar 2
E|-----0--------0--------0--------0----|
B|-------0--------0--------0--------0--|
G|-------------------------------------|
D|-------------------------------------|
A|---0--------2--------4--------7------|
e|-------------------------------------|

Repeat 2nd part of intro

Repeat Verse

2nd Chorus:
Guitar 1
E|-------------------------------------|
B|-------------------------------------|
G|-22222222-44444444-66666666-99999999-| 3x
D|-22222222-44444444-66666666-99999999-|
A|-00000000-22222222-44444444-77777777-|
e|-------------------------------------|

Guitar 2
E|-----0--------0--------0--------0----|
B|-------0--------0--------0--------0--|
G|-------------------------------------| 3x
D|-------------------------------------|
A|---0--------2--------4--------7------|
e|-------------------------------------|

Guitar 1
E|-------------------------------------|
B|-------------------------------------|
G|-22222222-44444444-66666666----------|
D|-22222222-44444444-66666666-66666666-|
A|-00000000-22222222-44444444-66666666-|
e|----------------------------44444444-|

Bridge:
Guitar 1 comes in and out with E|-----| And some scraping
                               B|-----|
                               G|-666-|
                               D|-666-|
                               A|-444-|
                               e|-----|

Guitar 2
E|-----7-----7-4h5p4-----4-------4---|
B|---5-----5-----------5---5---5---5-|
G|-6-----6-----------6-------6-------| Repeat
D|-----------------------------------|
A|-----------------------------------|
e|-----------------------------------|

Next Section: I'm assuming I can edit tabs, so I'm going to do this later.

Basically, it's the guitar 1 chorus part ascending, only it doesn't reach the -9- Instead, it peaks at -8-
    -9-                      -8-
    -7-                      -6-

Outro:
Guitar 1
E|-----------------|
B|-----------------|
G|-66-66-66-66-6-4-| Repeat
D|-66-66-66-66-6-4-|
A|-44-44-44-44-4-2-|
e|-----------------|

Guitar 2
E|-----7-----7-4h5p4-----4-------4---|
B|---5-----5-----------5---5---5---5-|
G|-6-----6-----------6-------6-------| Repeat
D|-----------------------------------|
A|-----------------------------------|


Important: The song above is NOT stored on the Chordie server. The original song is hosted at www.guitaretab.com. Chordie works as a search engine and provides on-the-fly formatting. Chordie does not index songs against artists'/composers' will. To remove this song please click here.

This song is displayed as text-only. Transposing and tuning is only available for chordpro-songs.

Login - add to songbook

Rating click stars to rate

Layout
Accuracy

SHARE PAGE  




You need to log in to post comments