Guitar Tabs, Chords and Lyrics


Makedamnsure  Taking Back Sunday

[F#]Bbm[-] -   [244322]x13321
B - x24442
C# - x46664
Ebm - x68876
C#/F - 143xxx
F#/Bb - x143xx
[F#sus]      [-]  [244422]                             
or you can also use capo on 2nd fret to make the E chord sound as F#


Verse 1:
[F#M7]  You've got this [Bbm]new
head filled [C#]up with smoke
[Ebm]  I got my [B]veins
all tangled [F#M7]close
To the jukebox
[Bbm]bars you [C#/F]frequent
The [Ebm]safest place to [G#m]hide
A [F#M7]long night spent with
your most [Bbm]obvious [C#]weakness
You start [Ebm]shaking
at the [B]thought you
are [F#M7]everything I [Bbm]want
Cause [C#/F]you are
[Ebm]everything I'm [G#m]not


Refrain 1:
And [B]we lay we lay
together just not
[F#/Bb]Too close too close
(How [C#]close is
close enough?)
We [B]lay we lay
together just not
[F#/Bb]Too close too close[C#]


Guitar 2: in Refrain
   [C#]                                                                                     
e|-----------------------------18-----|------------------|------------21-----|
B|----18-----19-----18-----19------19-|----18-----19-----|-18-----19------19-|
G|-18-----18-----18-----18------------|-18-----18-----18-|-----18------------|
D|------------------------------------|------------------|-------------------| x2
A|------------------------------------|------------------|-------------------|
E|------------------------------------|------------------|-------------------|



Chorus:
I just wanna [F#]break
you down so badly
Well I trip over
[C#]everything you say
I just wanna [F#/Bb]break
you down so badly
In the [B]worst way


Verse 2:
[F#M7]  My inar[Bbm]ticu[C#]late store
bought[Ebm] hangover [B]hobby kit
It [F#M7]talks[Bbm]
[C#/F]it says "[Ebm]You oh you are [G#m]so cool"
Scissor [F#M7]shaped across the
[Bbm]bed [C#]you are [Ebm]red violent [B]red
You hollow [F#M7]out my hungry [Bbm]eyes
You [C#/F]hollow [Ebm]out my hungry [G#m]eyes


Refrain 2:
And [B]we lay we lay
together just not
[F#/Bb]Too close too close
(How [C#]close is
close enough?)
[Ebm]We lay we lay
to[C#/F]gether [F#]just not
[F#/Bb]Too close too close[C#]


(Repeat Chorus twice)


Interlude: Ebm
e|-2---2---2---2---|
B|---4---4---4---4-|
G|-----------------|
D|-----------------| x8
A|-----------------|
E|-----------------|



Bridge:
I'm gonna [Ebm]make damn sure
that [C#]you can't ever leave
No you won't [F#]ever
get too far from me
You won't [B]ever get
too far from me
I'll make [Ebm]damn sure
that [C#/F]you can't ever leave
No you won't [F#sus]ever
[F#]get too [F#sus]far from [F#]me
You won't [B]ever get
too far from me
You won't [Ebm]ever get
too far from me
You won't [C#]ever get too far


(Repeat Chorus)


Outro:
I'm gonna make [F#]damn sure
I just wanna [C#]break
you down so badly
I just wanna [F#/Bb]break
you down so badly
(Damn sure)
In the [B]worst way
(Worst way)


Ending riff:
e|---------------------6---------------9-|
B|---6----7----6----7-----7----6----7--7-|
G|-6----6----6----6----------6----6----6-|
D|---------------------------------------|
A|---------------------------------------|
E|---------------------------------------|				


Important: The song above is NOT stored on the Chordie server. The original song is hosted at www.guitaretab.com. Chordie works as a search engine and provides on-the-fly formatting. Chordie does not index songs against artists'/composers' will. To remove this song please click here.

Text color:
Chord color:
Chord grids: 
Font size:    
Page size: 

B Bbm C# C#/F Ebm F# F#m7 F#sus G#m
variations - click chord images

Login - add to songbook

Transpose chords

Tuning

Rating click stars to rate

Layout
Accuracy

SHARE PAGE  




You need to log in to post comments