Chordie logo


Draw A Map   Takka Takka



-----------------------------------------------------------------------------
			     DRAW A MAP - Takka Takka
-----------------------------------------------------------------------------
Tabbed by: SonicYouthRules 
Email: chapmanli@hotmail.com

Tuning: Standard

What a great new band - saw these guys live at Buffalo Bar (Artrocker)
gig - great songwriting and simple, catchy melodies

This song is one of their best IMO off their album - riffs are repeated
throughout the song


LEAD GUITAR

e|--3h4-4-4-4-4-3-3~---3-3h4-4-4-4--3-3------------------------------------|
B|-------------------------------------------------------------------------|
G|-------------------------------------------------------------------------|
D|-------------------------------------------------------------------------|
A|-------------------------------------------------------------------------|
E|-------------------------------------------------------------------------|


e|--8-8-8h9-9-9-8-8---8-8-8h9-9-9-8-8--------------------------------------|
B|-------------------------------------------------------------------------|
G|-------------------------------------------------------------------------|
D|-------------------------------------------------------------------------|
A|-------------------------------------------------------------------------|
E|-------------------------------------------------------------------------|

e|--3h4-4-4-4-3-3---3-3h4-4-4-4-3-3----------------------------------------|
B|-------------------------------------------------------------------------|
G|-------------------------------------------------------------------------|
D|-------------------------------------------------------------------------|
A|-------------------------------------------------------------------------|
E|-------------------------------------------------------------------------|

e|--8-8-8h9-9-9-8-8--6-6-6-8~--8-8-8---------------------------------------|
B|-------------------------------------------------------------------------|
G|-------------------------------------------------------------------------|
D|-------------------------------------------------------------------------|
A|-------------------------------------------------------------------------|
E|-------------------------------------------------------------------------|



RHYTHM GUITAR

e|-------------------------------------------------------------------------|
B|---4-4-4-4-4-4-4-X--4-4-4-4-4---6-6-6-6-6--X-X--6-6-6-6-6-6--------------|
G|---5-5-5-5-5-5-5-X--5-5-5-5-5---6-6-6-6-6--X-X--6-6-6-6-6-6--------------|
D|---6-6-6-6-6-6-6-X--5-5-5-5-5---6-6-6-6-6--X-X--8-8-8-8-8-8--------------|
A|---6-6-6-6-6-6-6-X--3-3-3-3-3---4-4-4-4-4--X-X--8-8-8-8-8-8--------------|
E|---4-4-4-4-4-4-4--------------------------------6-6-6-6-6-6--------------|


link to band website:-http://myspace.com/takkatakka


| /  slide up
| \  slide down
| h  hammer-on
| p  pull-off
| ~  vibrato
| +  harmonic
| x  Mute note


Important: The song above is NOT stored on the Chordie server. The original song is hosted at www.guitaretab.com. Chordie works as a search engine and provides on-the-fly formatting. Chordie does not index songs against artists/composers will. To remove this song please click here.

This song is displayed as text-only. Transposing and tuning is only available for chordpro-songs.

Login - add to songbook

Rating click stars to rate

Layout
Accuracy

SHARE PAGE  




You need to log in to post comments